Está en la página 1de 1

AMOR SIN CONDICION

INTRO:

Em (4 veces) Em (4 veces)
e |------------------------|--------------|
B |------------------------|--------------|
D |------------------------|--------------|
A |-----7-5-7---7-5---5-7--|-5-5-7-5-7----|
E |-0-0-------0-----7------|-----------7--|

G Am Bm C (4 veces)
e |---------------------------------------|
B |---------------------------------------|
D |---------------------------------------|
A |---5-----7-----10------10-10-----------|
E |-3---3/5---5/7----7/8---8-8------------|

G D
De tal manera al mundo tu amaste
Em
Que hasta tu vida entregaste
C D
Tu costado abierto fue

G D
Y fueron esas gotas de tu sangre
Em
que mi corazon limpiaron
C D
me hiciste un nuevo ser

G D
Gracias te doy gracias
Em C D
Por tu amor sin condicion en esa cruz
G D
Gracias te doy gracias
Em C D
Por tu perdon la salvacion en esa cruz

G D
Amor sin condicion
Em C
amor sin condicion.