Está en la página 1de 2

Balada del pistolero

E-------7-7-7-7-8-7-7---8-7-7------|-----5-5-5-5-7-5-5-5-7-5-5------|
B-----8-8-8-8-8-8-8-8-8-8-8-8-8-10-|-----7-7-7-7-7-7-7-7-7-7-7-7-8--|
G---9-----------------9-------9-11-|---7-----------------------8-9--|
D-9--------------------------------|-7------------------------------|
A----------------------------------|--------------------------------|
E----------------------------------|--------------------------------|
Verso 1:
Em
B
Soy un hombre muy honrado, Que me gusta lo mejor
Em
A mujeres no me faltan, Ni al dinero, ni el amor.
Verso 2:
Em
B
Jineteando En mi caballo, Por la sierra yo me voy
Em
Las estrellas y la luna, Ellas me dicen donde voy.
Coro:
Am
Em
Ay, ay, ay, ay
B
Em
Ay, ay, mi amor
Am
Em
Ay, mi morena
B
Em
De mi corazn
E-------7-7-7-7-8-7-7---8-7-7------|-----5-5-5-5-7-5-5-5-7-5-5------|
B-----8-8-8-8-8-8-8-8-8-8-8-8-8-10-|-----7-7-7-7-7-7-7-7-7-7-7-7-8--|
G---9-----------------9-------9-11-|---7-----------------------8-9--|
D-9--------------------------------|-7------------------------------|
A----------------------------------|--------------------------------|
E----------------------------------|--------------------------------|
Verso 3:
Em
B
Me gusta tocar guitarra, me gusta cantar el son
Em
Mariachi me acompaa, cuando canto mi cancin.
Verso 4:
Em
B
Me gusta tomar mis copas, aguardiente es lo mejor
Em
Tambin la tequilla blanca, con cu sal le da sabor.
Coro:
Am
Em
Ay, ay, ay, ay
B
Em
Ay, ay, mi amor
Am
Em
Ay, mi morena
B
Em
De mi corazn
e|-----12-------11-------11-------12-------12-------11-|---11-----12-

B|-12-12-12-12-12-12-12-12-12-12-12-12-12-12-12-12-12--|--12--12-12-G|--11----11-11----11-11----11-11----11-11----11-11----|-11--11-11--D|------------------------------------------------------------------A|------------------------------------------------------------------E|------------------------------------------------------------------e|---12--12---10--10-9--9-7-7-5-5-3-3-2-2-0-0---------|
B|--12--12---12-12----10---9---7---5---3---0-3-0-3-1-0|
G|-11--11---11----------------------------------------|
D|----------------------------------------------------|
A|----------------------------------------------------|
E|----------------------------------------------------|
e|---------------|------0-2-----0-2-3-------0-2---7-5-3-2-0-|
B|-0---0---------|-0-0-4-----0-0-------0-0-4----------------|
G|--0---2-0------|------------------------------------------|
D|---2---1-2-----|------------------------------------------|
A|----2---2-2----|------------------------------------------|
E|------------0--|------------------------------------------|
Verso 5:
N.C.
Me gusta tocar guitarra, me gusta cantar el sol
Em
Mariachi me acompaa, cuando canto mi cancin.
Verso 6:
Em
B
Me gusta tomar mis copas, aguardiente es lo mejor
Em
Tambin la tequilla blanca, con su sal le da sabor.
Coro:
Am
Em
Ay, ay, ay, ay
B
Em
Ay, ay, mi amor
Am
Em
Ay, mi morena
B
Em
De mi corazn
Am
Em
Ay, ay, ay, ay
B
Em
Ay, ay, mi amor
Am
Em
Ay, mi morena
B
Em
De mi corazn