Está en la página 1de 2

Acar Ou Adoante?

Cicero
Compositor: Ccero Rosa Lins
Tom: D
Introduo:
Repete na primeira parte e na segunda.
Bm
Em6
E|----7-7----7-7----7-7--------------------------------|
B|----7-7----7-7----7-7--------0-0-----0-0-----0-0-----|
G|----7-7----7-7----7-7--------6-6-----6-6-----6-6-----|
D|-----------------------------5-5-----5-5-----5-5-----|
A|-----------------------------7-7-----7-7-----7-7-----|
E|-7-7----7-7----7-7----7--0-0-----0-0-----0-0-----0---|

D6
B9/G
E|-----7-7-----7-7-----7-7--------0-0-----0-0-----0-0--|
B|-----7-7-----7-7-----7-7--------2-2-----2-2-----2-2--|
G|-----7-7-----7-7-----7-7--------4-4-----4-4-----4-4--|
D|-0-0-----0-0-----0-0-----0---------------------------|
A|-----------------------------------------------------|
E|----------------------------3-3-----3-3-----3-3-----3|

Primeira Parte:
Bm
Entra pra ver
Em6
Como voc deixou o lugar
D6
E o tempo que levou pra arrumar
B9/G
Aquela gaveta
Bm
Entra pra ver
Em6
Mas tira o sapato pra entrar
D6
cuidado, que eu mudei de lugar
B9/G
Algumas certezas
Bm
Pra no te magoar
Em6
No tem porqu
D6
Pra ajudar teu analista:
B9/G
Desculpa.

( Bm Em6 D6 B9/G )
Refro:
Bm
Mas se voc quiser
A9
algum pra amar
Em
G
Ainda
Bm
Mas se voc quiser
A9
algum pra amar
Em
G
Ainda
G
Hoje no vai dar
Bm
No vou estar
Em
Te indico algum
( Bm Em6 D6 B9/G )
Segunda Parte:
Bm
Mas fica um pouco mais
Em6
Que tal mais um caf?
D6
Ainda lembra disso?
B9/G
Que bom.
Refro:
Bm
Mas se voc quiser
A9
algum pra amar
Em
G
Ainda
Bm
Mas se voc quiser
A9
algum pra anular
Em
G
Ainda
G
Desculpa, no vai dar
Bm
No vou estar
Em
Te indico algum