Está en la página 1de 1

21/10/2015

AbelZavala,Tmameentusbrazos:TablaturaparaGuitarra

AbelZavala
Tmameentusbrazos (TAB)
AUTOR:AbelZavalacorregir
ALBUM:Guardameentupresencia(2004)
azav0092
Aqui esta el Solo finalizando el canto. Ojala les guste.
E
B
G
D
A
E

|------------------------------------15---------|
|-17/181713----17/181713----13-17-----17------|
|-----------------------------------------------|
|-----------------------------------------------|
|-----------------------------------------------|
|-----------------------------------------------|

E
B
G
D
A
E

|--------------------------------------|
|--------------------------15-17-18-20-|
|-----------------14-16-17-------------|
|-------14-15-17-----------------------|
|-15-17--------------------------------|
|--------------------------------------|

E
B
G
D
A
E

|--------------------------------------|
|-17/181713----17/18/1713-13-15---15-|
|--------------------------------17----|
|--------------------------------------|
|--------------------------------------|
|--------------------------------------|

E
B
G
D
A
E

|---------------------------|---------------------------|---------------------------|-17-15-14-----------15-----|----------17-15--------17--|----------------17----------

Que Dios les Bendiga!


Naty Te Amo!
Si una pregunta mandenme un mensaje a nando1485@yahoo.com
Esteficheroestrabajopropiodesutranscriptoryrepresentasuinterpretacinpersonaldelacancin.Elmaterialcontenidoenestapginaespara
exclusivousoprivado,porloqueseprohibesureproduccinoretransmisin,ascomosuusoparafinescomerciales.

http://acordes.lacuerda.net/abel_zavala/tomame_en_tus_brazos2.shtml

1/1