Está en la página 1de 2

NO HAY OTRO NOMBRE

= 74
Hillsong Worship

INTRO: G D/F# G Am G D/F# Em


D/F# G

1a
Estrofa

D/F# G

Am G

D/F# Em

D/F# G

D/F# G Am

G D/F# Em

L ES QUIEN REINA CON PODER CREADOR SU FAMA ETERNA ES


G/B

G/B C

D C

G/B Em

G/B

C G/B Em C

SU VOZ UN ECO SIN FINAL TODOS PROCLAMARN NO HAY NADIE COMO L


D/F# G

1b
Estrofa

D/F# G Am

D/F#

Em

D/F#

G D/F#

G Am G D/F# Em

SU LUZ RADIANTE MS QUE EL SOL SU AMOR Y GRACIA DERRAM


G/B C G/B

C G/B Em

G/B

C G/B Em C

EN L ENCUENTRO SANIDAD POR SIEMPRE REINAR NO HAY NADIE COMO L


G

Em

VEN A ADORAR AL QUE RESUCIT LA LUZ DEL MUNDO, QUE NOS RESCAT

Coro

Bm

NO HAY OTRO NOMBRE IGUAL NO HAY OTRO NOMBRE IGUAL


Em

CRISTO NUESTRO DIOS OH OH OH


G

Em

EL VENCEDOR QUE A LA DIESTRA EST ANTE SU TRONO MONTES CAERN


Bm

NO HAY OTRO NOMBRE IGUAL NO HAY OTRO NOMBRE IGUAL


Em

Em1 C2 G

CRISTO NUESTRO DIOS OH OH OH JESS NO HAY OTRO NOMBRE IGUAL//


D/F# G D/F# G Am G D/F# Em D/F#

1c
Estrofa

D/F#

Am G D/F# Em

EN L EST LA SALVACIN LA CRUZ NOS MUESTRA SU AMOR


G/B

C G/B

G/B Em

G/B

C G/B Em C

VENCI LA MUERTE CON PODER EL REY DE REYES ES NO HAY NADIE COMO L


G

3
Puente

PUENTE: G (8 Compases, se pueden 2 4 dependiendo del grupo)


Em

CON TU PODER, SE ROMPEN CADENAS CANTARN, EL CIELO Y LA TIERRA


C

Em

SANTO ERES, JESS, SANTO ES TU NOMBRE CRISTO, CRISTO, CRISTO

NO HAY OTRO NOMBRE IGUAL


D/F#
G
D/F#
G Am G D/F# Em
D/F#
G
D/F#
G Am G D/F# Em
e-----|----------|--------------|-----|-----|-----------|--------------|-----|
B-----|----------|--------------|-----|-----|-----------|--------------|-----|
G--2--|--4----2--|--4--5--4--2--|--0--|--2--|--4-----2--|--4--5--4--2--|--0--|
D-----|----------|--------------|-----|-----|-----------|--------------|-----|
A-----|----------|--------------|-----|-----|-----------|--------------|-----|
E--2--|--3----2--|--3--5--3--2--|--0--|--2--|--3-----2--|--3--5--3--2--|--0--|
G/B
C
G/B
C D C G/B
Em
G
e-----|----------|--------------|--------|---------|
B--3--|--5----3--|--5--7--5--3--|--0-----|-0-3-0---|
G-----|----------|--------------|-----2--|-------0-|
D-----|----------|--------------|--------|---------|
A--2--|--3----2--|--3--5--3--2--|--------|---------|
E-----|----------|--------------|--0-----|-3-------|
C
G/B
C D C G/B
Em
C
e----------|--------------|--------|---------|
B--5----3--|--5--7--5--3--|--0---0-|--1------|
G----------|--------------|-----2--|---------|
D----------|--------------|--------|---------|
A--3----2--|--3--5--3--2--|--------|--3------|
E----------|--------------|--0-----|---------|