Está en la página 1de 3

The Nights.

txt
Song: The Nights
Starting Date: 12/05/14
Final date: 12/26/14
Composer: Avicii arr. 121guitarplayer
Standard Tuning
Capo 1st Fret

ye
r

------------------------------------------------------------------------------------------------------------------------------------------2--2--2--2-2--2-2-2----2--2--2--2-2--2-2-2------0---0---0-2-0----------0----------------------0-------------------3---3---3-------3-0------------------------------------------------------------------------------------------------------------------------------------------

rp
la

------------------------------------------------------------------------------------------------------------------------------------------2--2--2--2-2--2-2-2----2--2--2--2-2--2-2-2------0---0---0-2-0----------0-------------------0----------------------3---3---3-------3-3------------------------------------------------------------------------------------------------------------------------------------------

ta

---------------------------------------------------------------------------------------------------------------------------------------------------0-2-2-2-0-2------0---0---0-2-0--------------3-3-2-0-3--3-3-3-3----------------3---3---3-------3-0---------------------------------------------------------------------------------------------------------------------------------------

1g
ui

---------------------------0----------------------------------------------------------1-3---3-1----------------------------------------------------------------2----2-2-2-----2-2---0----------3-3-2-0-3--3-3--3-3-----------------------3-3-----3-----------------------------------------------------------------------------------------------------------------------------------------

12

---------------0-----------------------------------------------------1-3--1-3---3-1------------------------1----------------------2----------------2----2-2---0----0----2----------------------3-----3------------3--------3----3----3---------------------------------------------------------------------------------------------------------------------------------------------------------------------0---------------------------------------------------1-3--3-1-3---3-1-----------------1--3------------------------2------------------2----2-2---0--2------2--------------------3-----3--------------3--------3------------------------------------------------------------------------------------------------------------------------------------------------------------Page 1

The Nights.txt
----------------------------------------------------------------------------------------------------------------------------------3-2-0--------------------------------------------------------3-------3-0-0---0-3-0--------------------------------------------------------3-------3-0--0--0-0-0-----------------0-3--------------------------------------------1-3--3-1-3--3-1-----------

ye
r

----------------0---------------------------------------------------1-3--3-1-3---3-1---------------1--3--------------------------2------------------2--2-2---0--2------2----------------------3---------------------------3----------------------------------------------------------------------------------------------------------------------------------------------------------------

rp
la

||-------------|| ------------6-------------------------------||------7-7-7--|| ------7-7-9---------------------------------||--6-8---6-6--|| --6-8---6-6---------------------------------||-------------||x7--------------------------------------------||-------------|| --------------------------------------------||-------------|| ---------------------------------------------

ta

||-------------|| ------------6-------------------------------||------7-7-7--|| ------7-7-9---------------------------------||--6-8---6-6--|| --6-8---6-6---------------------------------||-------------||x7--------------------------------------------||-------------|| --------------------------------------------||-------------|| ---------------------------------------------

1g
ui

------------------------------------------------------------------------------------------------------------------------------------------2--2--2--2-2--2-2-2----2--2--2--2-2--2-2-2------0---0---0-2-0----------0-------------------0----------------------3---3---3-------3-0------------------------------------------------------------------------------------------------------------------------------------------

12

-----------------------------------------------------------------------------------------------------------1-1----------------------------2--2--2--2-2--2-2-2----2--2--2--2-2------0------0---0---0-2-0----------0----------------------0-------------------3---3---3-------3-3--------------------------------------------------------------------------------------------------------------------------------------------------------------------------------------------------------------------------------------------------------------------------------------------0-2-2-2-0-2------0---0---0-2-0--------------3-3-2-0-3--3-3-3-3----------------3---3---3-------3-0--------------------------------------------------------------------------------------------------------------------------------------Page 2

The Nights.txt
---------------------------0----------------------------------------------------------1-3---3-1----------------------------------------------------------------2----2-2-2-----2-2---0----------3-3-2-0-3--3-3--3-3-----------------------3-3-----3-----------------------------------------------------------------------------------------------------------------------------------------

ye
r

---------------0-----------------------------------------------------1-3--1-3---3-1------------------------1----------------------2----------------2----2-2---0----0----2----------------------3-----3------------3--------3----3----3-----------------------------------------------------------------------------------------------------------------------------------------------------

rp
la

-----------------0---------------------------------------------------1-3--3-1-3---3-1-----------------1--3------------------------2------------------2----2-2---0--2------2--------------------3-----3--------------3--------3-------------------------------------------------------------------------------------------------------------------------------------------------------------

ta

--------------------------------------------------------------------------------------------------------------------------------3-2-0-------------------------------------------------------3-------3-0-0---0-3-0-------------------------------------------------------3-------3-0--0--0-0-0-----------------0-3-------------------------------------------1-3--3-1-3--3-1----------

||-------------|| ------------6---------------------------||
||------7-7-7--|| ------7-7-9-----------------------------||
||--6-8---6-6--|| --6-8---6-6-----------------------------||
||-------------||x7----------------------------------------||x3
||-------------|| ----------------------------------------||
||-------------|| ----------------------------------------||

12

||
||
||
||
||
||

1g
ui

----------------0---------------------------------------------------1-3--3-1-3---3-1---------------1--3--------------------------2------------------2--2-2---0--2------2----3-2-0-------------3---------------------------3--------------3-------3-----------------------------------------------------------------------------------------------------------------------------------------

||-------------|| ------------6-------------------------------||------7-7-7--|| ------7-7-9---------------------------------||--6-8---6-6--|| --6-8---6-6---------------------------------||-------------||x7-----------------8-7-5----------------------||-------------|| ---------------8-------8--------------------||-------------|| --------------------------------------------Page 3