Está en la página 1de 5

EstacancinseladedicoalElencoteatralPanJusticiayLibertad,

esperoquelesguste
Ritmo:huayo
E ---------------------------------------------------------------------------12B ---------------------------------------------------------------------------12G ---------------------------------------------------------------------------12D -------------------5-7-9---7-5-7-------------------------5-7-9---7-5-7------A -----2///7---7---7-------5---------7///2---2///7---7---7-------5-------7----E ---0-------0---0--------------------------0------0---0----------------------MImSOL
Sombrosdasdesocavn
RESOL
Nochesdetragedia
MImSOL
Desesperanzaydesilusin
SI7MIm
Sesientenenmialma
MImSOL
Asmividapasandovoy
RESOL
Porqueminerosoy
MImSOL
Mineroquepormipatriadoy
SI7MIm
Todamiexistencia
DOSOL
Masenlavidadebosufrir
LASOL
Tantaingratitud
DOSOL
Migrantragediaterminara
LASOL
Muylejosdeaqu
MImSOL
Predestinadoavivirestoy
RESOL
Enelsantocielo
MImSOL
Poresoadioslepidomorir
SI7MIm
Comobuenminero
Coro
DOSOL
Minerocaniyllajtaimanta
LASOL
Minerojinacausakuni
MImSOL
Manaimaiphiskathuhuanchu
SI7MIm
Sukathullaitasapeskairy

DOSOL
Mineromantallullaykunki
LASOL
Minerojinacausakusa
MImSOL
Jihuancacharicausajpari
SI7MIm
Wakharicuspariscuscani
DOSOLLASOL2veces
MimSolMReMMim
MImSOLSI7MIm
(Serepitetododesdesombrosdas)
Paraterminarsemarcarpidamentelosacordes,comoencualquierhuayco.
Paralaintroducion,estesmbolo/significa,avanzaroretrocedersin
levantareldedo.
Yeneldocehabotraste,puedeshaceroctavasparaquetesalgaigualala
cancin.
Siporahhubieraalgnerrorescribanporfavor.
Suerte
Holaestaesmiprimeracancinquevengoacompartir
Lasaqueaodoyesperoquelesguste,esungrupoperuanodemusicafusin
Queestasonandomuchodesegurolesesconocido,sihayalgnerrorcomentar
ysilesgustatambin.
Enlacancionseusandostcnicasbsicasdelaguitarrael(p=pulloff)
yel(s=slide)sinoloentiendenbusqueneninternetesfcil.
Ahorasi,aqulesdejoeltema.

INTRO:

e -------5---------------/--5------------/--5---B --5p7----7--5----7-----/----7--5----7--/----7-G ---------------7-------/---------7-----/------- Repetir 2 veces


A -----------------------/---------------/------D -----------------------/---------------/------E -----------------------/---------------/-------

e --7p9--5-----7p9--5-5-----5--7-7s9--7--/
B ----------7------------7---------------/
G ---------------------------------------/
Repetir 2 veces
A ---------------------------------------/
D ---------------------------------------/
E ---------------------------------------/

e --10---------12---------/---------------------9------/
B ------12-12------14-14--/--10---------10--12-----12--/
G ------------------------/------11-11-----------------/

A ------------------------/----------------------------/
D ------------------------/----------------------------/
E ------------------------/----------------------------/

e --10---------12---------/---------------------16-----/
B ------12-12------14-14--/--17---------17--19------19-/
G ------------------------/------18-18-----------------/
A ------------------------/----------------------------/
D ------------------------/----------------------------/
E ------------------------/----------------------------/

e ------------------/
En este punteo tipo "bajo"
B ------------------/
acaba el intro, y empieza el
G ------------------/
rasgueo con las notas que se
A ------------------/
repiten en casi toda la
D ------------0-----/
cancin que son Bm y A.
E ---0---2----------/
Y luego en la otra parte
setocanlassiguientesnotas
G,A,F#mybajanuevamentea
Bm.

Buenoesteeselintroesperolesgustenuevamente
graciasycomentensilesgusto.
HolaMellamoFelixEsmiterceratranscripcion
Cualquierdudaaquimifacebook:www.facebook.com/felixvinsel

CGFC
Perdonamemiamorr,abrazamemiamor
DmA#CGF
Tequieroamorregresa,porfavorvuelveotravez.Perdoname
FCDmx2
GmCAmDmx2
FCDmx2
A#FCFA#FCDmx2
FC
Ahoraquetevassientomorirme
DmAm
Esperaunpocomasestoymuytriste
GmF
Perdonamemiamorsitefalle
Gm
Solounaveztelastime
C
Sequefuiuntontoyalose
CGFC
Perdonamemiamorr,abrazamemiamor
DmA#

Tequieroamorregresa,porfavorvuelveotravez
CGFC
Perdonamemiamorr,abrazamemiamor
DmA#
Noquieroamorperderte,sintuamorquevoyahacer
FDm
Perdoname
FCDmx2
GmCAmDmx2
FCDmx2
A#FCFA#FCDmx2
FC
Ahoraquetevassientomorirme
DmAm
Esperaunpocomasestoymuytriste
GmF
Perdonamemiamorsitefalle
Gm
Solounaveztelastime
C
Sequefuiuntontoyalose

CGFC
Perdonamemiamorr,abrazamemiamor
DmA#
Tequieroamorregresa,porfavorvuelvehaciami
CGFC
Perdonamemiamorr,abrazamemiamor
DmA#
Noquieroamorperderte,sintuamorquevoyahacer
FDm
Perdoname

A#FCFA#FCDmx2
FCFCDmx2
Estavadedikadaparaunagranamiga,Pierina...
Mecostunpocosacarla,peroahilesvaenlanotaoriginal...

Intro:
AmCAmCAm
DmFCGAm(x2)
FCGAm(x2)

AmCGAm
Cielosinestrellas,lunaquenoalumbra

AmCGAm
Llantoquenoacabadesdequetyanoestsconmigo
CORO:
FCGAm
Amorporqutefuisteynocontestasamisllamadas
FCGAm
Sintiyanohaymsnada,sloelsilencioqueammemata
Instrumental:
CAmFGFGAm(x2)
FCGAm(x2)
AmCGAm
Nochesdetristeza,dasdeamargura
AmCGAm
Lluviaquenocesadesdequetyaestsconmigo
CORO:
FCGAm
Amorporqutefuisteynocontestasamisllamadas
FCGAm
Sintiyanohaymsnada,sloelsilencioqueammemata
Instrumental:
FCGAm(x2)
CORO:
FCGAm
Amorporqutefuisteynocontestasamisllamadas
FCGAm
Sintiyanohaymsnada,slohayvacoqueammemata
Final:
DmFCGAm(x2)
FCGAm(x4)