Está en la página 1de 5

3/1/2015

Man,Mariposatraicionera:TablaturaparaGuitarra

Man
Mariposatraicionera (TAB)
AUTOR:FherOlvera
ALBUM:RevolucindeAmor
mana0733
*Intro:
-1ra. Guitarra, Electroacstica (capo 5to. Traste):
1.
2.
3.
4.
5.
6.

-------------8-8-8----8--6---|-----------6-6-6----6--------|
--9--9--9--9-9-9-9--9-9--8-8-|-8-8-8-8-8-8-8-8-8--8-8--9-6-|
-10-10-10-10-------10------8-|-8-8-8-8-8-------8----8-10-6-|
-----------------------------|-----------------------------|
-----------------------------|-----------------------------|
-----------------------------|-----------------------------|

1.
2.
3.
4.
5.
6.

--------------------------------|------------|
-----9--9--9----9---8---6-------|------------|
-/10--10-10-10----8---6---6-8-5-|------------|
------------------------------6-|-/6-5-------|
--------------------------------|------8-6-8-|
--------------------------------|------------|

*Verso:
-2da. Guitarra, Electroacstca (capo 1er. Traste):
-3ra. Guitarra, Elctrica

1.
2.
3.
4.
5.
6.
1.
2.
3.
4.
5.
6.

1.
2.
3.
4.
5.
6.
1.
2.
3.
4.
5.
6.

Em
D
C
Eres como una mariposa, vuelas y posas vas de boca en boca,
---8---8----8---8--|-----6------6------6------6-----|----4---|
---9---9----9---9--|-----8------8------8------8-----|----6---|
--10--10---10--10--|-----8------8------8------8-----|----6---|
--10--10---10--10--|-----8------8------8------8-----|----6---|
-------------------|--------------------------------|--------|
-------------------|--------------------------------|--------|
G
fcil y ligera de quien te provoca.
-----4-----4-----4------|---4---4---4---|------------|
-----6-----6-----6------|---4---4---4---|------------|
-----6-----6-----6------|---5---5---5---|------------|
-----6-----6-----6------|---6---6---6---|-/6-5-------|
------------------------|---------------|------8-6-8-|
------------------------|---------------|------------|
Em
D (riff 1)
C
Yo soy ratn de tu ratonera, trampa que no mata pero no libera,
---8----8----8----8--|-----6------6------6------6-----|----4---|
---9----9----9----9--|-----8------8------8------8-----|----6---|
--10---10---10---10--|-----8------8------8------8-----|----6---|
--10---10---10---10--|-----8------8------8------8-----|----6---|
---------------------|--------------------------------|--------|
---------------------|--------------------------------|--------|
G
vivo muriendo prisionero.
---4---4---4---|---4---4---4---|
---6---6---6---|---4---4---4---|
---6---6---6---|---5---5---5---|
---6---6---6---|---6---6---6---|
---------------|---------------|
---------------|---------------|

*Puente:
C
D
G (riff2)
Em
Mariposa traicionera, todo se lo lleva el viento,
1. -4-4--6--6--|-----4------4------|-----8-----8----|
http://acordes.lacuerda.net/mana/mariposa_traicionera3.shtml

1/5

3/1/2015

2.
3.
4.
5.
6.
1.
2.
3.
4.
5.
6.

Man,Mariposatraicionera:TablaturaparaGuitarra

-6-6--8--8--|-----5------5------|-----9-----9----|
-6-6--8--8--|-----6------6------|----10----10----|
-6-6--8--8--|-----6------6------|----10----10----|
------------|-------------------|----------------|
------------|-------------------|----------------|
C
D
B7 (riff 3)
Mariposa no regreso.
-4-4--6--6--|--3--3--|
-6-6--8--8--|--5--5--|
-6-6--8--8--|--5--5--|
-6-6--8--8--|--5--5--|
------------|--------|
------------|--------|

*Coro:
E
Ay, mariposa de amor, mi mariposa de amor,
B
ya no regreso contigo, (riff 4)
F#m (riff 5)
B7
ay, mariposa de amor, mi mariposa de amor,
E
nunca jamas junto a ti, (riff 6)
E7
vuela amor, vuela dolor,
A
y no regreses a un lado, (riff 7)
E
ya vete de flor en flor, (riff 8)
B7
E
seduciendo a los pistilos, (riff 9)
A
E
y vuela cerca del sol,
B7
E
pa que sientas lo que es dolor.
*Solo:
-1ra. Guitarra, Electroacstica (capo 5to. Traste):
1.
2.
3.
4.
5.
6.

----------------|----------------------|---------------------------|
-10-10-10-11-13-|---9---9-8---9-8--8-6-|-----9--8--9-8---9-8---9-8-|
-10-10-10-12-14-|-5----10-8--10-8--8-6-|-6/8----8-10-8--10-8--10-8-|
----------------|----------------------|---------------------------|
----------------|----------------------|---------------------------|
----------------|----------------------|---------------------------|

1.
2.
3.
4.
5.
6.

---------------------------|--------------|------------|
---6--6-8-6--8--9-8-6------|--------------|------------|
-6----6-8-6--8-10-8-6--8-5-|--------------|------------|
----------------------10-6-|----------6-5-|-/6-5-------|
---------------------------|----5-6-8-----|------8-6-8-|
---------------------------|--8-----------|------------|

*Verso:
-2da. Guitarra, Electroacstca (capo 1er. Traste):
-3ra. Guitarra, Elctrica

1.
2.
3.
4.
5.
6.

Em
D
C
Ay mujer, cmo haces dao, pasan los minutos cual si fueran aos,
---8----8----8---8--|---6-------6-------6-------6------|----4---|
---9----9----9---9--|---8-------8-------8-------8------|----6---|
--10---10---10--10--|---8-------8-------8-------8------|----6---|
--10---10---10--10--|---8-------8-------8-------8------|----6---|
--------------------|----------------------------------|--------|
--------------------|----------------------------------|--------|
G (riff 10)

http://acordes.lacuerda.net/mana/mariposa_traicionera3.shtml

2/5

3/1/2015

1.
2.
3.
4.
5.
6.

1.
2.
3.
4.
5.
6.
1.
2.
3.
4.
5.
6.

Man,Mariposatraicionera:TablaturaparaGuitarra

mira estos celos me estn matando.


-----4-----4-----4----|---4---4---4---|------------|
-----6-----6-----6----|---4---4---4---|------------|
-----6-----6-----6----|---5---5---5---|------------|
-----6-----6-----6----|---6---6---6---|-/6-5-------|
----------------------|---------------|------8-6-8-|
----------------------|---------------|------------|
Em
D
C
Ay mujer, que fcil eres, abres tus alitas muslos de colores,
---8---8---8---8--|---6------6-------6------6------|----4---|
---9---9---9---9--|---8------8-------8------8------|----6---|
--10--10--10--10--|---8------8-------8------8------|----6---|
--10--10--10--10--|---8------8-------8------8------|----6---|
------------------|--------------------------------|--------|
------------------|--------------------------------|--------|
G
donde se posan tus sabores.
---4---4---4----|---4---4---4---|
---6---6---6----|---4---4---4---|
---6---6---6----|---5---5---5---|
---6---6---6----|---6---6---6---|
----------------|---------------|
----------------|---------------|

*Puente:
(riff 11)

1.
2.
3.
4.
5.
6.
1.
2.
3.
4.
5.
6.

C
D
G
Em
(riff 12)
Mariposa traicionera, todo se lo lleva el viento,
-4-4--6--6--|-----4------4------|-----8-----8----|
-6-6--8--8--|-----5------5------|-----9-----9----|
-6-6--8--8--|-----6------6------|----10----10----|
-6-6--8--8--|-----6------6------|----10----10----|
------------|-------------------|----------------|
------------|-------------------|----------------|
C
D
B7 (riff 13)
Mariposa no regreso.
-4-4--6--6--|--3--3--|
-6-6--8--8--|--5--5--|
-6-6--8--8--|--5--5--|
-6-6--8--8--|--5--5--|
------------|--------|
------------|--------|

*Coro:
E
Ay, mariposa de amor, mi mariposa de amor,
B
ya no regreso contigo, (riff 4)
F#m (riff 5)
B7
ay, mariposa de amor, mi mariposa de amor,
E
nunca jamas junto a ti, (riff 5)
E7
vuela amor, vuela dolor,
A
que tengas suerte en tu vida, (riff 14)
E
ay, ay, ay, ay, ay dolor,
B7
E
yo te llor todo un ro, (riff 8)
A
E
ay, ay, ay, ay, ay amor,
B7
E
t te me vas a volar.
*Outro:

http://acordes.lacuerda.net/mana/mariposa_traicionera3.shtml

3/5

3/1/2015

Man,Mariposatraicionera:TablaturaparaGuitarra

-1ra. Guitarra, Electroacstica (capo 5to. Traste):


1.
2.
3.
4.
5.
6.

----------------|
-10-10-10-11-13-|
-10-10-10-12-14-|
----------------|
----------------|
----------------|

1.
2.
3.
4.
5.
6.

---------------------8-8-8----8--6---|-----------6-6-6----6--------|
------9---9--9--9--9-9-9-9--9-9--8-8-|-8-8-8-8-8-8-8-8-8--8-8--9-6-|
---------10-10-10-10-------10------8-|-8-8-8-8-8-------8----8-10-6-|
-8/10--------------------------------|-----------------------------|
-------------------------------------|-----------------------------|
-------------------------------------|-----------------------------|

1.
2.
3.
4.
5.
6.

--------------------------------|---------6---|------------|
-----9--9--9----9---8---6-------|---6-8-9---9-|------------|
-/10--10-10-10----8---6---6-8-5-|-8-----------|------------|
------------------------------6-|-------------|-/6-5-------|
--------------------------------|-------------|------8-6-8-|
--------------------------------|-------------|------------|

*RIFFS:
-1ra. Guitarra, Electroacstica (capo 5to. Traste):

1.
2.
3.
4.
5.
6.

riff
riff
riff
1
2
3
-6-8-6-|----11-------11-----13-------13-|-------------------------|
-------|-13----13-13-----13----13-13----|-6-8--9--9/11--9------11-|
-------|--------------------------------|-6-8-10-10/12-10-10-12---|
-------|--------------------------------|-----------------11------|
-------|--------------------------------|-------------------------|
-------|--------------------------------|-------------------------|

1.
2.
3.
4.
5.
6.

riff
riff
riff
riff
4
5
6
7
------------------|----------|-8--9-8--9-8-|-777h8-12-12/13-|
------------------|-8/9-8h11-|-9-11-9-11-9-|----------------|
-9-12-12-10-10/12-|-0--------|-------------|----------------|
------------------|-0--------|-------------|----------------|
------------------|----------|-------------|----------------|
------------------|----------|-------------|----------------|

1.
2.
3.
4.
5.
6.

riff
riff
riff
8
9
10
----------------10-13-12-|-----------------|-------------------|
-10-10-10h11-10-11-15-13-|-----------------|-----13----11----9-|
-------------------------|---8-6---------5-|-/10----/8----/6---|
-------------------------|-8-----8\7-6-8---|-------------------|
-------------------------|-----------------|-------------------|
-------------------------|-----------------|-------------------|

1.
2.
3.
4.
5.
6.
1.
2.
3.
4.
5.
6.

riff
riff
riff
11
12
13
---------------------|--------------|---------8--9-10---13-|
-----13-----14----16-|-8-11-8-6-6-6-|-8--9-11-9-11-12-14---|
-/10----/12----/13---|-8-12-8-6-6-6-|-8-10-12--------------|
---------------------|--------------|----------------------|
---------------------|--------------|----------------------|
---------------------|--------------|----------------------|
riff
14
---------------7-11111111101010----------------1111---|
---------6-7-9-----------------1313131313111111----11-|
-----7-9----------------------------------------------|
-9-9--------------------------------------------------|
------------------------------------------------------|
------------------------------------------------------|

http://acordes.lacuerda.net/mana/mariposa_traicionera3.shtml

4/5

3/1/2015

Man,Mariposatraicionera:TablaturaparaGuitarra

Esteficheroestrabajopropiodesutranscriptoryrepresentasuinterpretacinpersonaldelacancin.Elmaterialcontenidoenestapginaespara
exclusivousoprivado,porloqueseprohibesureproduccinoretransmisin,ascomosuusoparafinescomerciales.

http://acordes.lacuerda.net/mana/mariposa_traicionera3.shtml

5/5