Está en la página 1de 5

Tab1:

|---------------------------------------|
|---------------------------------------|
|-55-55---------7---77-7----------------|
|-55-55---77----7---77-7---55-----------|
|-33-33---77—5------55-5---55-----------|
|---------55---------------33-3-6-3-6-3-|

Tab2:
|-----------------------------------8----8----8-
|-----------------------------------8----8----8-
|---------------------------------10^--10^--10^-
|-----------------------------------------------
|-33-5--33-5--33-5--33-5--33-5------------------
|-11-1--11-1--11-1--11-1--11-1------------------

-------------------|
-------------------|
-10p8--8—10-8vib---|
-------------------|
-------------------|
-------------------|

Tab3:
|-----------------------------------------|
|-----------------------------------------|
|-----------------------------------------|
|---------------------------------55--33--|
|-33-5--33-5--33-5--33-5--33-5----55--11--|
|-11-1--11-1--11-1--11-1--11-1----33--11--|

Tab4:
|---------------------------------------|
|---------------------------------------|
|---------------------------------------|
|---------------------------------5555--|
|-33-5--33-5--33-5--33-5--33-5----5555--|
|-11-1--11-1--11-1--11-1--11-1----3333--|

Tab5:
|-------------------|
|-----6-5-----------|
|-55--6-5-----------|
|-55----------------|
|-33-------33-5--33-|
|----------11-1--11-|
---------------------------------------------------------------
INTRO: C

|------------------------------------------
|------------------------------------------
|10^-8-10-8---------8---10^----------8vib--
|-----------8h10-10---------8-8-8h10-------
|------------------------------------------
|------------------------------------------

-------------------------------------------------
-------------------------------------------------
-------------------------------------------------
-8------8----8-----8-----8-----8-----8-----------
--8h10---8h10-8h10--8h10--8h10--8h10--8h10-10vib-
-------------------------------------------------

--------------------------------
-8---11-10-8--------------------
-------------11-10-8------------
----------------------8-8h10----
--------------------------------
--------------------------------

--------------------------------
-8---11-10-8--------------------
-------------11-10-8------------
----------------------8-8h10----
--------------------------------
--------------------------------

--------------------------------
-8---11-10-8--------------------
-------------11-10-8------------
----------------------8-8h10----
--------------------------------
--------------------------------

------------------------------------------
------------------------------------------
-10-8--------------------------------8-10-
------10-8----------------------8-10------
-----------10-8------------8-10-----------
----------------11-10-8-10----------------

-------------------------------------------
-------------------------------------10sss-
-10-8--------------------------------10sss-
------10-8----------------------8-10-------
-----------10-8------------8-10------------
----------------11-10-8-10-----------------

---------------------------------------
---------------------------------------
-55-55---------7---77-7----------------
-55-55---77----7---77-7---55-----------
-33-33---77—5------55-5---55-----------
---------55---------------33-3-6-3-6-3-

--------------------------------------------|
-------8-------------------8----8----8------|
-7^vib----7^vib------5---7^---7^---^7----7--|
-----------------5s7------------------------|
--------------------------------------------|
--------------------------------------------|

Tab1
Hey hermano píntate de blanco y vamos a fumar el amor
Tab1
Con el pelo hasta las nubes en mi guitarra
Se q tengo el corazón
Tab1
No dejes q te arrastre a sentir lo q no quieres aunq el mundo
no te de la razón
Tab1
Y ahora deja q la música te drogue los sentidos y vamos a fumar
el amor

Tab2
Si te sientes una piedra en el zapato de alguna señora
Tab3
Nunca busques la salida en el ritmo de la vida y vamos a fumar
el amor

Tab1
El amor es un tabaco q lo fumas hasta adentro
casi casi hasta el corazon
Tab1
pero a veces es como un chicle q al principio lo masticas y
despues ya no tiene sabor
Tab1
Por eso ahora escucha y golpealo hasta adentro
como una rehabilitacion
Tab1
y ahora deja q se salga el sentido de tu alma
y vamos a fumar el amor

Tab4
Si te sientes una piedra en el zapato de alguna señora
Tab3
Nunca busques la salida en el ritmo de la vida y vamos a fumar
el amor

Tab5 X2
(Vamos, vamos a fumar el amor)
el amor no es dañino para la salud
(vamos, vamos a fumar el amor)
yo creo q con paz tambien se fuma mejor

SOLO:
|---6-6-----6-6-----6-6-----6-6----------------------
|---6-6-----6-6-----6-6-----6-6-----13---------------
|-8^------8^------8^------8^-----------12p10--12-10--
|---------------------------------13^----------------
|----------------------------------------------------
|----------------------------------------------------

-------------------------------12----12----12------12
-14--13--11-------------11--12^---12^---12^------12^-
-------------12--10--12------------------------------
-----------------------------------------------------
-----------------------------------------------------
-----------------------------------------------------

---15----15-----15-----17----17----17---17--17-171717
-15^---15^----15^----17^---17^---17^--17^-17^--171717
-----------------------------------------------------
-----------------------------------------------------
-----------------------------------------------------
-----------------------------------------------------

---5---5-------------------------8-7-5---------------
---5---5---7^7^-7^---------------------8-7-5---------
-7^--7^----7^7^-7^p5-7-5------5--------------7-5-----
--------------------------5h7--------------------7-5-
-----------------------------------------------------
-----------------------------------------------------
-----------------------------------------5----------
-------------------------7^--------------5----------
--------------5----------7^-5---5-7----7----7-7-5---
----------5-7---7-5-----------7-------------------7-
-7-5--5-7-----------7-5-----------------------------
----------------------------------------------------

---------------------------------------------------|
-------------------------------------13^-13~-------|
----------5-7--7^v—8~-----------9-10---------------|
-5~---5s7-----------------///10--------------------|
---------------------------------------------------|
---------------------------------------------------|

Tab5
(vamos, vamos a fumar el amor)
ooohhhhh vamos a fumar el amor
(Vamos, vamos a fumar el amor)
Si me resulta, ve, todo queda mejor
(vamos, vamos a fumar el amor)
Ooohhhhh
G5 F#5 F5

Hay pequeños acompañamientos, no los pongo , asi q adornenlo y


ponganle riffs
Les dejo el final

... ... ... .............

-12121212--11111111—--1010101010----------------------
-11111111--10101010---9999999999----------------------
-12121212--11111111—--1010101010------3^v-3^v-3^v...--
------------------------------------------------------
------------------------------------------------------
------------------------------------------------------