Está en la página 1de 5

Help Me Through The Night (Hell Freezes Over 1994)

12-string guitar - Walsh


Strum in Open G @ 67bpm.

1974 - Joe Walsh


The Eagles 1994 version

G*maj*1
G*maj*1
D||--0--0-0-0--0-0--0--0-0--0--|--0--0-0-0--0-0--0--0-0--0--|
B||--0--0-0-0--0-0--0--0-0--0--|--0--0-0-0--0-0--0--0-0--0--|
G||--4--4-4-4--4-4--4--4-4--4--|--4--4-4-4--4-4--4--4-4--4--|
D||--5--5-5-5--5-5--5--5-5--5--|--5--5-5-5--5-5--5--5-5--5--|
G||--0--0-0-0--0-0--0--0-0--0--|--0--0-0-0--0-0--0--0-0--0--|
D||----------------------------|----------------------------|
G*maj*1
G*maj9
G*maj6
G*maj*0
--0--0-0-0--0-0--0--0-0-0-0-0-|--0--0-0-0--0-0--0--0-0-0-0-0-|
--0--0-0-0--0-0--0--0-0-0-0-0-|--0--0-0-0--0-0--0--0-0-0-0-0-|
--4--4-4-4--4-4--2--2-2-2-2-2-|--0--0-0-0--0-0--0--0-0-0-0-0-|
--5--5-5-5--5-5--4--4-4-4-4-4-|--2--2-2-2--2-2--0--0-0-0-0-0-|
--0--0-0-0--0-0--0--0-0-0-0-0-|--0--0-0-0--0-0--0--0-0-0-0-0-|
------------------------------|------------------------------|
F6
Cadd9
Cadd9
G*maj*0
--0--0-0-0--0-0--0--0-0-0-0-0-|--0--0-0-0--0-0--0--0-0-0-0-0-|
--1--1-1-1--1-1--1--1-1-1-1-1-|--1--1-1-1--1-1--0--0-0-0-0-0-|
--2--2-2-2--2-2--0--0-0-0-0-0-|--0--0-0-0--0-0--0--0-0-0-0-0-|
--3--3-3-3--3-3--2--2-2-2-2-2-|--2--2-2-2--2-2--0--0-0-0-0-0-|
--0--0-0-0--0-0--0--0-0-0-0-0-|--0--0-0-0--0-0--0--0-0-0-0-0-|
------------------------------|------------------------------|
G*maj*1
G*maj9
G*maj6
G*maj*0
--0--0-0-0--0-0--0--0-0-0-0-0-|--0--0-0-0--0-0--0--0-0-0-0-0-|
--0--0-0-0--0-0--0--0-0-0-0-0-|--0--0-0-0--0-0--0--0-0-0-0-0-|
--4--4-4-4--4-4--2--2-2-2-2-2-|--0--0-0-0--0-0--0--0-0-0-0-0-|
--5--5-5-5--5-5--4--4-4-4-4-4-|--2--2-2-2--2-2--0--0-0-0-0-0-|
--0--0-0-0--0-0--0--0-0-0-0-0-|--0--0-0-0--0-0--0--0-0-0-0-0-|
------------------------------|------------------------------|
F6
Cadd9
Cadd9
G*maj*0
--0--0-0-0--0-0--0--0-0-0-0-0-|--0--0-0-0--0-0--0--0-0-0-0-0-|
--1--1-1-1--1-1--1--1-1-1-1-1-|--1--1-1-1--1-1--0--0-0-0-0-0-|
--2--2-2-2--2-2--0--0-0-0-0-0-|--0--0-0-0--0-0--0--0-0-0-0-0-|
--3--3-3-3--3-3--2--2-2-2-2-2-|--2--2-2-2--2-2--0--0-0-0-0-0-|
--0--0-0-0--0-0--0--0-0-0-0-0-|--0--0-0-0--0-0--0--0-0-0-0-0-|
------------------------------|------------------------------|
G*maj12*3
F*6add9
--0---0--0--0---0--0---0---0--0--0--0--0--|--0---0--0--0---0--0---0---0--0--0--0--0--|
--0---0--0--0---0--0---0---0--0--0--0--0--|--10--10-10-10--10-10--10--10-10-10-10-10-|
--12--12-12-12--12-12--12--12-12-12-12-12-|--10--10-10-10--10-10--10--10-10-10-10-10-|
--12--12-12-12--12-12--12--12-12-12-12-12-|--0---0--0--0---0--0---0---0--0--0--0--0--|

--0---0--0--0---0--0---0---0--0--0--0--0--|--0---0--0--0---0--0---0---0--0--0--0--0--|
------------------------------------------|------------------------------------------|
G*maj*8
F**6 add9
--0--0-0-0--0-0--0--0-0-0-0-0-|--0--0-0-0--0-0--0--0-0-0-0-0-|
--8--8-8-8--8-8--8--8-8-8-8-8-|--6--6-6-6--6-6--6--6-6-6-6-6-|
--0--0-0-0--0-0--0--0-0-0-0-0-|--0--0-0-0--0-0--0--0-0-0-0-0-|
--9--9-9-9--9-9--9--9-9-9-9-9-|--7--7-7-7--7-7--7--7-7-7-7-7-|
--0--0-0-0--0-0--0--0-0-0-0-0-|--0--0-0-0--0-0--0--0-0-0-0-0-|
------------------------------|------------------------------|
G*12*2
F*6add9
--0---0--0--0---0--0---0---0--0--0--0--0--|--0---0--0--0---0--0---0---0--0--0--0--0--|
--12--12-12-12--12-12--12--12-12-12-12-12-|--10--10-10-10--10-10--10--10-10-10-10-10-|
--12--12-12-12--12-12--12--12-12-12-12-12-|--10--10-10-10--10-10--10--10-10-10-10-10-|
--0---0--0--0---0--0---0---0--0--0--0--0--|--0---0--0--0---0--0---0---0--0--0--0--0--|
--0---0--0--0---0--0---0---0--0--0--0--0--|--0---0--0--0---0--0---0---0--0--0--0--0--|
------------------------------------------|------------------------------------------|
G*12*2
--0---0--0--0---0--0---0---0--0--0--0--0--|--5---0---7-----7-7-5---|
--12--12-12-12--12-12--12--12-12-12-12-12-|--5---0---7-----7-7-5---|
--12--12-12-12--12-12--12--12-12-12-12-12-|--5---0---7-----7-7-5---|
--0---0--0--0---0--0---0---0--0--0--0--0--|--5---0---7-----7-7-5---|
--0---0--0--0---0--0---0---0--0--0--0--0--|--5---0---7-----7-7-5---|
------------------------------------------|------------------------|
G*12*2
F*6add9
--0---0--0--0---0--0---0---0--0--0--0--0--|--0---0--0--0---0--0---0---0--0--0--0--0--|
--12--12-12-12--12-12--12--12-12-12-12-12-|--10--10-10-10--10-10--10--10-10-10-10-10-|
--12--12-12-12--12-12--12--12-12-12-12-12-|--10--10-10-10--10-10--10--10-10-10-10-10-|
--0---0--0--0---0--0---0---0--0--0--0--0--|--0---0--0--0---0--0---0---0--0--0--0--0--|
--0---0--0--0---0--0---0---0--0--0--0--0--|--0---0--0--0---0--0---0---0--0--0--0--0--|
------------------------------------------|------------------------------------------|
G*12*2
--0---0--0--0---0--0---0---0--0--0--0--0--|--5---0---7-----7-7-5---|
--12--12-12-12--12-12--12--12-12-12-12-12-|--5---0---7-----7-7-5---|
--12--12-12-12--12-12--12--12-12-12-12-12-|--5---0---7-----7-7-5---|
--0---0--0--0---0--0---0---0--0--0--0--0--|--5---0---7-----7-7-5---|
--0---0--0--0---0--0---0---0--0--0--0--0--|--5---0---7-----7-7-5---|
------------------------------------------|------------------------|
G*maj*0
G*maj*0
--5---0---7-----7-7-5---|--0--0-0-0--0-0--0--0-0-0-0-0-|--0--0-0-0--0-0--0--0-0-0-0-0-|
--5---0---7-----7-7-5---|--0--0-0-0--0-0--0--0-0-0-0-0-|--0--0-0-0--0-0--0--0-0-0-0-0-|
--5---0---7-----7-7-5---|--0--0-0-0--0-0--0--0-0-0-0-0-|--0--0-0-0--0-0--0--0-0-0-0-0-|
--5---0---7-----7-7-5---|--0--0-0-0--0-0--0--0-0-0-0-0-|--0--0-0-0--0-0--0--0-0-0-0-0-|
--5---0---7-----7-7-5---|--0--0-0-0--0-0--0--0-0-0-0-0-|--0--0-0-0--0-0--0--0-0-0-0-0-|
------------------------|------------------------------|------------------------------|
Cadd9

G*maj*0

B*

E*m

D*

C*m

C*maj add9/G

--0--0-0-0--0-0--0--0-0-0-0-0-|--4--4-4-4--4-4-9----7---0-|--0--0-0-0--0-0--0--0-0-0-0-0-|
--1--1-1-1--0-0--0--0-0-0-0-0-|--4--4-4-4--4-4-8----7---5-|--5--5-5-5--5-5--5--5-5-5-5-5-|
--0--0-0-0--0-0--0--0-0-0-0-0-|--4--4-4-4--4-4-9----7---5-|--5--5-5-5--5-5--5--5-5-5-5-5-|
--2--2-2-2--0-0--0--0-0-0-0-0-|--4--4-4-4--4-4-9----7---5-|--5--5-5-5--5-5--5--5-5-5-5-5-|
--0--0-0-0--0-0--0--0-0-0-0-0-|--4--4-4-4--4-4-9----7---0-|--0--0-0-0--0-0--0--0-0-0-0-0-|
------------------------------|---------------------------|------------------------------|
C*maj add9/G
C*maj add9/G
--0--0-0-0--0-0--0--0-0-0-0-0-|--0--0-0-0--0-0--0--0-0-0-0-0-|
--5--5-5-5--5-5--5--5-5-5-5-5-|--5--5-5-5--5-5--5--5-5-5-5-5-|
--5--5-5-5--5-5--5--5-5-5-5-5-|--5--5-5-5--5-5--5--5-5-5-5-5-|
--5--5-5-5--5-5--5--5-5-5-5-5-|--5--5-5-5--5-5--5--5-5-5-5-5-|
--0--0-0-0--0-0--0--0-0-0-0-0-|--0--0-0-0--0-0--0--0-0-0-0-0-|
------------------------------|------------------------------|
G*maj*1
G*maj9
G*maj6
G*maj*0
--0--0-0-0--0-0--0--0-0-0-0-0-|--0--0-0-0--0-0--0--0-0-0-0-0-|
--0--0-0-0--0-0--0--0-0-0-0-0-|--0--0-0-0--0-0--0--0-0-0-0-0-|
--4--4-4-4--4-4--2--2-2-2-2-2-|--0--0-0-0--0-0--0--0-0-0-0-0-|
--5--5-5-5--5-5--4--4-4-4-4-4-|--2--2-2-2--2-2--0--0-0-0-0-0-|
--0--0-0-0--0-0--0--0-0-0-0-0-|--0--0-0-0--0-0--0--0-0-0-0-0-|
------------------------------|------------------------------|
F6
Cadd9
Cadd9
G*maj*0
--0--0-0-0--0-0--0--0-0-0-0-0-|--0--0-0-0--0-0--0--0-0-0-0-0-|
--1--1-1-1--1-1--1--1-1-1-1-1-|--1--1-1-1--1-1--0--0-0-0-0-0-|
--2--2-2-2--2-2--0--0-0-0-0-0-|--0--0-0-0--0-0--0--0-0-0-0-0-|
--3--3-3-3--3-3--2--2-2-2-2-2-|--2--2-2-2--2-2--0--0-0-0-0-0-|
--0--0-0-0--0-0--0--0-0-0-0-0-|--0--0-0-0--0-0--0--0-0-0-0-0-|
------------------------------|------------------------------|
G*12*2
F*6add9
--0---0--0--0---0--0---0---0--0--0--0--0--|--0---0--0--0---0--0---0---0--0--0--0--0--|
--12--12-12-12--12-12--12--12-12-12-12-12-|--10--10-10-10--10-10--10--10-10-10-10-10-|
--12--12-12-12--12-12--12--12-12-12-12-12-|--10--10-10-10--10-10--10--10-10-10-10-10-|
--0---0--0--0---0--0---0---0--0--0--0--0--|--0---0--0--0---0--0---0---0--0--0--0--0--|
--0---0--0--0---0--0---0---0--0--0--0--0--|--0---0--0--0---0--0---0---0--0--0--0--0--|
------------------------------------------|------------------------------------------|
G*12*2
--0---0--0--0---0--0---0---0--0--0--0--0--|--5---0---7-----7-7-5---|
--12--12-12-12--12-12--12--12-12-12-12-12-|--5---0---7-----7-7-5---|
--12--12-12-12--12-12--12--12-12-12-12-12-|--5---0---7-----7-7-5---|
--0---0--0--0---0--0---0---0--0--0--0--0--|--5---0---7-----7-7-5---|
--0---0--0--0---0--0---0---0--0--0--0--0--|--5---0---7-----7-7-5---|
------------------------------------------|------------------------|
G*maj*0
--5---0---7-----7-7-5---|--5---0---7-----7-7-5---|--0--0-0-0--0-0--0--0-0-0-0-0-|
--5---0---7-----7-7-5---|--5---0---7-----7-7-5---|--0--0-0-0--0-0--0--0-0-0-0-0-|
--5---0---7-----7-7-5---|--5---0---7-----7-7-5---|--0--0-0-0--0-0--0--0-0-0-0-0-|
--5---0---7-----7-7-5---|--5---0---7-----7-7-5---|--0--0-0-0--0-0--0--0-0-0-0-0-|
--5---0---7-----7-7-5---|--5---0---7-----7-7-5---|--0--0-0-0--0-0--0--0-0-0-0-0-|

------------------------|------------------------|------------------------------|

--5---0---7-----7-7-5---|--5---0---7-----7-7-5---|--5---0---7-----7-7-5---|
--5---0---7-----7-7-5---|--5---0---7-----7-7-5---|--5---0---7-----7-7-5---|
--5---0---7-----7-7-5---|--5---0---7-----7-7-5---|--5---0---7-----7-7-5---|
--5---0---7-----7-7-5---|--5---0---7-----7-7-5---|--5---0---7-----7-7-5---|
--5---0---7-----7-7-5---|--5---0---7-----7-7-5---|--5---0---7-----7-7-5---|
------------------------|------------------------|------------------------|
G*maj*0
Cadd9
G*maj*0
B*
E*m D* C*m
--0--0-0-0--0-0--0--0-0-0-0-0-|--0--0-0-0--0-0--0--0-0-0-0-0-|--4--4-4-4--4-4-9----7---0-|
--0--0-0-0--0-0--0--0-0-0-0-0-|--1--1-1-1--0-0--0--0-0-0-0-0-|--4--4-4-4--4-4-8----7---5-|
--0--0-0-0--0-0--0--0-0-0-0-0-|--0--0-0-0--0-0--0--0-0-0-0-0-|--4--4-4-4--4-4-9----7---5-|
--0--0-0-0--0-0--0--0-0-0-0-0-|--2--2-2-2--0-0--0--0-0-0-0-0-|--4--4-4-4--4-4-9----7---5-|
--0--0-0-0--0-0--0--0-0-0-0-0-|--0--0-0-0--0-0--0--0-0-0-0-0-|--4--4-4-4--4-4-9----7---0-|
------------------------------|------------------------------|---------------------------|
C*maj add9/G
C*maj add9/G
--0--0-0-0--0-0--0--0-0-0-0-0-|--0--0-0-0--0-0--0--0-0-0-0-0-|
--5--5-5-5--5-5--5--5-5-5-5-5-|--5--5-5-5--5-5--5--5-5-5-5-5-|
--5--5-5-5--5-5--5--5-5-5-5-5-|--5--5-5-5--5-5--5--5-5-5-5-5-|
--5--5-5-5--5-5--5--5-5-5-5-5-|--5--5-5-5--5-5--5--5-5-5-5-5-|
--0--0-0-0--0-0--0--0-0-0-0-0-|--0--0-0-0--0-0--0--0-0-0-0-0-|
------------------------------|------------------------------|
C*maj add9/G
G*maj*1
G*maj9
--0--0-0-0--0-0--0--0-0-0-0-0-|--0--0-0-0--0-0--0--0-0-0-0-0-|
--5--5-5-5--5-5--5--5-5-5-5-5-|--0--0-0-0--0-0--0--0-0-0-0-0-|
--5--5-5-5--5-5--5--5-5-5-5-5-|--4--4-4-4--4-4--2--2-2-2-2-2-|
--5--5-5-5--5-5--5--5-5-5-5-5-|--5--5-5-5--5-5--4--4-4-4-4-4-|
--0--0-0-0--0-0--0--0-0-0-0-0-|--0--0-0-0--0-0--0--0-0-0-0-0-|
------------------------------|------------------------------|
G*maj6
G*maj*0
F6
Cadd9
--0--0-0-0--0-0--0--0-0-0-0-0-|--0--0-0-0--0-0--0--0-0-0-0-0-|
--0--0-0-0--0-0--0--0-0-0-0-0-|--1--1-1-1--1-1--1--1-1-1-1-1-|
--0--0-0-0--0-0--0--0-0-0-0-0-|--2--2-2-2--2-2--0--0-0-0-0-0-|
--2--2-2-2--2-2--0--0-0-0-0-0-|--3--3-3-3--3-3--2--2-2-2-2-2-|
--0--0-0-0--0-0--0--0-0-0-0-0-|--0--0-0-0--0-0--0--0-0-0-0-0-|
------------------------------|------------------------------|
Cadd9
G*maj*0
G*maj*1
G*maj9
--0--0-0-0--0-0--0--0-0-0-0-0-|--0--0-0-0--0-0--0--0-0-0-0-0-|
--1--1-1-1--1-1--0--0-0-0-0-0-|--0--0-0-0--0-0--0--0-0-0-0-0-|
--0--0-0-0--0-0--0--0-0-0-0-0-|--4--4-4-4--4-4--2--2-2-2-2-2-|
--2--2-2-2--2-2--0--0-0-0-0-0-|--5--5-5-5--5-5--4--4-4-4-4-4-|
--0--0-0-0--0-0--0--0-0-0-0-0-|--0--0-0-0--0-0--0--0-0-0-0-0-|
------------------------------|------------------------------|
G*maj6
G*maj*0
F6
Cadd9
--0--0-0-0--0-0--0--0-0-0-0-0-|--0--0-0-0--0-0--0--0-0-0-0-0-|

--0--0-0-0--0-0--0--0-0-0-0-0-|--1--1-1-1--1-1--1--1-1-1-1-1-|
--0--0-0-0--0-0--0--0-0-0-0-0-|--2--2-2-2--2-2--0--0-0-0-0-0-|
--2--2-2-2--2-2--0--0-0-0-0-0-|--3--3-3-3--3-3--2--2-2-2-2-2-|
--0--0-0-0--0-0--0--0-0-0-0-0-|--0--0-0-0--0-0--0--0-0-0-0-0-|
------------------------------|------------------------------|
Cadd9
G*maj*0
G*maj*1
G*maj9
--0--0-0-0--0-0--0--0-0-0-0-0-|--0--0-0-0--0-0--0--0-0-0-0-0-|
--1--1-1-1--1-1--0--0-0-0-0-0-|--0--0-0-0--0-0--0--0-0-0-0-0-|
--0--0-0-0--0-0--0--0-0-0-0-0-|--4--4-4-4--4-4--2--2-2-2-2-2-|
--2--2-2-2--2-2--0--0-0-0-0-0-|--5--5-5-5--5-5--4--4-4-4-4-4-|
--0--0-0-0--0-0--0--0-0-0-0-0-|--0--0-0-0--0-0--0--0-0-0-0-0-|
------------------------------|------------------------------|
G*maj6
G*maj*0
F6
Cadd9
Cadd9
G*12*ha
--0--0-0-0--0-0--0--0-0-0-0-0-|--0--0-0-0--0-0--0--0-0-0-0-0-|--0-0-0-0--0-0------12----|
--0--0-0-0--0-0--0--0-0-0-0-0-|--1--1-1-1--1-1--1--1-1-1-1-1-|--1-1-1-1--1-1------12----|
--0--0-0-0--0-0--0--0-0-0-0-0-|--2--2-2-2--2-2--0--0-0-0-0-0-|--0-0-0-0--0-0------12----|
--2--2-2-2--2-2--0--0-0-0-0-0-|--3--3-3-3--3-3--2--2-2-2-2-2-|--2-2-2-2--2-2------12----|
--0--0-0-0--0-0--0--0-0-0-0-0-|--0--0-0-0--0-0--0--0-0-0-0-0-|--0-0-0-0--0-0------12----|
------------------------------|------------------------------|--------------------------|
G*12*harm
------------------||
------------------||
------------------||
------------------||
------------------||
------------------||