Está en la página 1de 3

|-2-3-----3-2-----2-0-----------------|

|-----0-------0-------0--------8////--|
|-------0-------0-------0-------------|
|-1-2-----2-1-----1-0-----------------|
|---------------------------///7------|
|-------------------------------------|

Bueno aqui les dejo los acordes q siguen ustedes hagan el


arpegio a su manera( no olviden q ay tocadas en la primera
cuerda en el traste 3):

C G D A@
|-0-| |-3-| |-2-| |-0-|
|-1-| |-0-| |-3-| |-3-|
|-0-| |-0-| |-2-| |-2-|
|-2-| |-0-| |-0-| |-1-|
|-3-| |-2-| |-0-| |-0-|
|-0-| |-3-| |-0-| |-0-|

Acordes 2:
E1 E2 E3
|-0-| |-0-| |-0-|
|-0-| |-0-| |-0-|
|-0-| |-0-| |-0-|
|-2-| |-1-| |-0-|
|-2-| |-2-| |-2-|
|-0-| |-0-| |-0-|

E1 E2
No encuentro una salida
E3 A
y ni siquiera sé como entraste en mi
C G
me dices que mi amor no combina
D A@
con tu forma de vestir.

E1 E2
Vives tras la cortina
E2 A
y no puedes ver mas allá de ti
C G
te entercas con la misma rutina
D
de vivir y no sentir.

Am C
Es tan fácil querer,
G Em
pero es difícil saber cuándo te aman.
Am C
Pero me tocó perder
D A@
y ahora tengo que arder entre tus llamas.

E1 E2 E3 A
Eres sólo un sueño que no puedo olvidar
C G
tan linda como el cielo,
D A@
pero cruel como el mar.
E1 E2 E3 A
Eres sólo un ángel que no puede volar
C G D Em
yo te corté las alas y te vas a quedar.

Solo

|---------------------------------------------------------
|-----8-7h8h7h8h..-------------15^~~-12h13p12-----------
|-8-9------------7~--9~~/////-----------------14-12~----
|---------------------------------------------------------
|---------------------------------------------------------
|---------------------------------------------------------

-----------------------------11--------12-----------------
--------------------------------11-15^----15--12h15p12----
-11h12p11----------11-12-14^---------------------------14-
----------14-12-14----------------------------------------
----------------------------------------------------------
----------------------------------------------------------

-------------------------17---------------------20^~~-----
-12h15p12------15----17~----15-17~------------------------
----------14------16-----------------19-19-19-------------
----------------------------------------------------------
----------------------------------------------------------
----------------------------------------------------------

----15-------15--------15...---------------------------------
-15^--15b(17)---15b(17)-....v15-12----15-------15--------15..
------------------------------------14^--14b(16)---14b(16....
-------------------------------------------------------------
-------------------------------------------------------------
-------------------------------------------------------------

----------------------------------------|
----------------------------------------|
..v14-12----14^14^14^14^!4^14~14~14~14~-|
----------------------------------------|
----------------------------------------|
----------------------------------------|

Am C
Es tan fácil querer,
G Em
pero es difícil saber cuándo te aman.
Am C
Pero me tocó perder
D A@
y ahora tengo que arder entre tus llamas.

E1 E2
No encuentro una salida
E3 A
y ni siquiera sé como entraste en mi
C G
me dices que mi amor no combina
D A@
con tu forma de vestir.

............

|-//00000000000000000000----------------0000000000000000
|-//555555555sss77777777--0000000000--//888888ss12121212
|-------------------------4444ss5555--------------------
|-------------------------------------------------------
|-------------------------------------------------------
|-------------------------------------------------------

0000000000000000000000000000000000000000000000000000----
1212p10101010p8888888888888sss1313131313ss5555555555----
--------------------------------------------------------
--------------------------------------------------------
--------------------------------------------------------
--------------------------------------------------------

--12-12-12-12p11-------12-12-12-12p11------12-12-12-12p11
-----------------13-12~--------------13-12~--------------
---------------------------------------------------------
---------------------------------------------------------
---------------------------------------------------------
---------------------------------------------------------

-------12-12-12-12p11..........12-11--------12-11--------
-13-12~--------------..........-------13-12--------13-12-
---------------------..........--------------------------
---------------------..........--------------------------
---------------------..........--------------------------
---------------------..........--------------------------

-12-11-------12-11-------12-11-------12-11---------------
-------13-12-------13-12-------13-12-------13-12-10-12-10
---------------------------------------------------------
---------------------------------------------------------
---------------------------------------------------------
---------------------------------------------------------

---------------------------------------------------------
---------------------------------------------------------
-12-11-12~~~~~~~~~~~~~~~~~~~~~~~-------------------------
---------------------------------------------------------
---------------------------------------------------------

FINNNNNNN pidan su tablatura para colgarla