Está en la página 1de 2

www.Perucriollo.

tk

CHINA HEREJE
Vals
(Romanceros Criollos)
e-3--3--2--3--5--7--7--6--7--9-10--10--12--12--12--7--7--|
B-5--5--4--5--7--8--8--7--8-10-12--12--13--13--13--8--8--|
G--------------------------------------------------------|
D--------------------------------------------------------|
A--------------------------------------------------------|
E--------------------------------------------------------|

e-12-12-7-7-12-12-7-7-12-12-7-7-12-12-7-7-5-5-3-3-|
B-13-13-8-8-13-13-8-8-13-13-8-8-13-13-8-8-7-7-5-5-|
G-------------------------------------------------|
D-------------------------------------------------|
A-------------------------------------------------|
E-------------------------------------------------|

e---7--7-10-7-10-7-10-7-10--10-7---------------7-12-|
B--8-----------------------------10-8-7------8------|
G-9-------------------------------------9-8-9-------|
D---------------------------------------------------|
A---------------------------------------------------|
E---------------------------------------------------|

Si te vas de mi lado china hereje


Mim
SIM7
Mim
para burlarte tal vez de m desgracia
MIM7
Lam
tu bien sabes china boba quien soy yo
REM7
SOLM
buen cantor, guitarrista y chupa caa
SIM7
Mim
ay buen cantor, guitarrista y chupa caa.
SIM7
Mim
Me duele el corazn con tal violencia
Mim
SIM7
Mim
que arrancarlo de mi pecho yo quisiera
MIM7
Lam
y llevarlo de la mano a tu presencia
REM7
SOLM
y oprimirlo fuertemente hasta que muera
SIM7
Mim
ay y oprimirlo fuertemente hasta que muera.
SIM7
Mim

www.Perucriollo.tk

www.Perucriollo.tk

Hablando:
e------7-7-6-7-6-7-6-7-7--7--8-10-12-12--12-15-14-12-11-12-10--8--|
B----8-8-8-7-8-7-8-7-8-8--8-10-12-13-13--13-13-13-13-12-13-12-10--|
G-8-9-------------------------------------------------------------|
D-----------------------------------------------------------------|
A-----------------------------------------------------------------|
E-----------------------------------------------------------------|
e--8-10-12-12--12-12-15-14-12-11-12-10--8-----|
B-10-12-13-13--13-13-13-13-13-12-13-12-10-----|
G---------------------------------------------|
D---------------------------------------------|
A---------------------------------------------|
E---------------------------------------------|
e---7--7-10-7-10-7-10-7-10--10-7---------------7-12-|
B--8-----------------------------10-8-7------8------|
G-9-------------------------------------9-8-9-------|
D---------------------------------------------------|
A---------------------------------------------------|
E---------------------------------------------------|

Para que quieres saber si estoy sufriendo


Mim
SIM7
Mim
para que quieres saber de mi desgracia
MIM7
Lam
t no tienes sentimiento pal cario
REM7
SOLM
t no tienes corazn, no vales nada.
SIM7
Mim
ay t no tienes corazn, no vales nada.
SIM7
Mim
Coro
Patrn, patrn sirva usted ms caa
Mim
SIM7
Mim
se me atracado un huesito en la garganta
MIM7
Lam
hace tiempo que vivo yo borracho
REM7
SOLM
vaya al diablo el perrito y la calandria
SIM7
Mim
ay...vaya al diablo...el perrito y la....calandria.
SIM7
Mim

www.Perucriollo.tk