Está en la página 1de 2

www.Perucriollo.

tk

www.Perucriollo.tk

CAUTIVO DE AMOR
Vals
(MARITZA RODRIGUEZ)

Parte de guitarra de la introduccin que es con clarinete

e--------9-9-13-9-6-6----------|
B------8-8-8-13-8-8-8-10-10----|
G-----9----------------9--9----|
D-9/10-------------------------|
A------------------------------|
E------------------------------|

Te quiero bien sabes
Fam FAM Lam#
mi vida la dispones como gustes
REM7# SOLM#
al cabo, no tengo
DOM7 Fam
no tengo voluntad para oponerme.
SOLM SOLM7 DOM7
Me tienes cautivo
Fam FAM Lam#
y doy lo que t quieras por quererme
REM7# SOLM#
si quieres, la vida
DOM7 Fam
total no vale nada sin tus besos
SOLM# DOM7 Fam
si quieres, la vida.
DOM7 Fam
total no vale nada sin tus besos.
SOLM# DOM7 Fam

Ya vez cario. as te quiero
REM# SOLM#
ya vez no niego, que por ti muero
REM# SOLM#
amor bendito, fiel y constante
REM# SOLM#
ser tu amigo, tu amor, tu amante
REM# SOLM#
nunca me olvides, prenda querida
DOM7 Fam
www.Perucriollo.tk

www.Perucriollo.tk

mi dulce vida, mi adoracin.
DOM7 Fam


e----------------------|
B-8-9-9----------------|
G-------8-9-9----------|
D-------------8-10-10--|
A----------------------|
E----------------------|

Hay dulce amorcito
DOM7
tierno y bonito
Fam
no me abandones
SOLM#
por otro amor...
DOM7 Fam

e--8----|
B-12----|
G-------|
D-------|
A-------|
E-------|