Está en la página 1de 0

1

CLASES DE GUITARRA


Partes de la guitarra












Posicin de la mano izquierda










2


ORIENTACIN

PENTAGRAMA

Nombre de las lneas y los espacios en clave de Sol











Todas aquellas figuras que se encuentren sobre una lnea o espacio
toman el nombre musical de ellos.


Lneas y espacios adicionales.
Son lneas que se colocan encima y debajo del pentagrama para la
continuacin e impresin de las notas ms agudas o ms graves
respectivamente.















Mi
Sol
Si
Re
Fa
Fa
La
Do
Do
Re
Sol
La
Mi
3

GUITARRA

Nombre de las cuerdas de la guitarra.








PENTAGRAMA
Situacin del sonido de las seis cuerdas en la escala










Dedos de la mano izquierda.
Indice .. 1
Medio .. 2
Anular .. 3
Meique .. 4

Dedos de la mano derecha.
Pulgar . P
Indice . I
Medio . M
Anular . A

Guitarra
Los dedos deben corresponderse con su traste
0 = Cuerda al aire (no se pulsa)
1 = Traste 1 dedo 1
2 = Traste 2 dedo 2
3 = Traste 3 dedo 3
4 = Traste 4 dedo 4
4

La Tablatura
Estructura de la Tablatura
Est integrada por 6 lneas que representan las seis cuerdas de la
Guitarra. La lnea de arriba representa la primera cuerda, es la ms
delgada y sonido ms agudo de la Guitarra, mientras que la lnea de
abajo representa la sexta, es la ms gruesa y sonido ms grabe de la
Guitarra. Una lnea vertical indica el principio o final de un comps y la
doble lnea vertical indica el final de la tablatura. Como se puede ver en
el ejemplo:
1ra. cuerda e |----------------------------------||
2da. cuerda B |----------------------------------||
3ra. cuerda G |----------------------------------||
4ta. cuerda D |----------------------------------||
5ta. cuerda A |----------------------------------||
6ta. cuerda E |----------------------------------||
\
Esta es la cuerda ms gruesa

Las letras e, B, G, D, A y E indican el nombre de la nota que produce la
cuerda tocada al aire, de la ms delgada a la ms gruesa. La 'e'
minscula es la nota de Mi pero ms aguda (dos octavas ms).

Nombre de las cuerdas de la guitarra.
Lo mismo que lo anterior.









5
Las Pisadas
Los nmeros que encontramos sobre cada lnea indican el espacio en
donde se debe pisar la cuerda (Traste) con los dedos de la mano
izquierda, y tocarla con la mano derecha. Por ejemplo, si el nmero 3
sta sobre la 2da. lnea, significa que debemos tocar la 2da. cuerda
pisada en el 3er. traste. El "0" (cero) indica que se debe tocar la cuerda
al aire (sin pisarla).
|-----------------------------------------||
|-------3---------------------------------||
|-----------------------------------------||
|-----------------------------------------||
|-----------------------------------------||
|-----------------------------------------||

Cuando se presentan nmeros fuera de la tablatura (generalmente
abajo), indican con que dedos de la mano izquierda deben ser
presionadas las posiciones que te indica la tablatura. El nmero 1 indica
el dedo ndice, el 2 el dedo medio, el 3 el dedo anular y el 4 el dedo
meique.
Escala - Do
C D E F G A B C
|--------------------------------------------||
|----------------------------------0----1----||
|------------------------0----2--------------||
|---------0----2----3------------------------||
|----3---------------------------------------||
|--------------------------------------------||
3 - 2 3 - 2 - 1








6
1
6
1
Do
Re
Mi
Fa
Sol
La
Si
Do
6




Ejercicio bsico - Diario

Practicar todos los das nada ms coger la guitarra mnimo 10 minutos y
muy despacito.

Empezaremos por la sexta cuerda y primer traste (pisar con la yema del
dedo) el ndice (1), medio (2), anular (3) y meique (4) hasta tener
posicionado los cuatro dedos y sin levantarlos sobre los cuatro trastes,
luego retrocedemos y vamos levantando dedo a dedo y as
sucesivamente. Repetir en las seis cuerdas.

Al principio, en esta prctica suele costar trabajo posicionar el dedo
meique as que ejercitaremos los tres primeros dedos e
introduciremos ste (4) poco a poco.

Es muy importante que no levantemos los dedos en este ejercicio, que lo
hagamos muy despacito y que el sonido sea lo ms limpio posible.










7


AFINACIN DE LA GUITARRA


6 5 4 3 2 1

1

2

3

4


5




1 - Tensar la 5 cuerda hasta alcanzar el tono del afinador universal,
(nota LA).
2 - Tensar la 6 cuerda de manera que pisada en el 5 traste suene
igual que la 5 cuerda al aire.
3 - Tensar la 4 cuerda de manera que al aire suene como la 5 pisada
en el 5 traste.
4 - Tensar la 3 cuerda de manera que al aire suene como la 4 pisada
en el 5 traste.
5 - Tensar la 2 cuerda de manera que al aire suene como la 3 pisada
en el 4 traste.
6 - Tensar la 1 cuerda de manera que al aire suene como la 2 pisada
en el 5 traste.


8

Primeros acordes

Mi (E)





Lam (Am)





Rem (Dm)




9


Prctica

Arpegio 1

Practicar muy lentamente con los acordes aprendidos hasta
que los sonidos de las cuerdas sean limpios, sin perder la
postura de la mano (cada dedo en su cuerda). Comenzar con
todos los dedos situados en sus cuerdas correspondientes.













Dedos de la mano derecha.
P ...................... Pulgar
i ..................... Indice
m ....................Medio
a .....................Anular


Practicar en los acordes de Mi, Lam y Rem
Mi = Bajo en la 6 cuerda
Lam = Bajo en la 5 cuerda
Rem = Bajo en la 4 cuerda


10



Diapasn de la guitarra











Ir practicando la cejilla



Primer traste Tercer traste











11


Acordes muy utilizados del grupo Mi



Mi






Mim






Mi7



12
La Escala de Do Mayor
Las notas de la escala de Do mayor no tienen sostenidos (#), ni bemoles (b), son
las que se tocan con las teclas blancas de un piano. Esta es la nica escala que te
exijo que estudies a conciencia en ste curso.




C D E F G A B C (Octava)
|--------------------------------------------||
|----------------------------------0----1----||
|------------------------0----2--------------||
|---------0----2----3------------------------||
|----3---------------------------------------||
|--------------------------------------------||
3 - 2 3 - 2 - 1
Los nmeros que estn abajo de la tablatura te indican que dedo de la mano
izquierda debes utilizar para pulsar la cuerda en el traste que se te indica, y las
letras de arriba son los nombres de las notas que vas tocando. Te recomiendo que
practiques la escala ascendente y descendentemente varias veces sin detenerte y
que vayas nombrando las notas que vas tocando, para que puedas aprenderte los
nombres de las notas y su posicin en el diapasn. Este es el orden en que debes
practicar la escala empezando por el Do de la tercera cuerda: C, D, E, F, G, A, B, C,
B, A, G, F, E, D y C. Practica la escala ida y vuelta, ida y vuelta sin detenerte, a una
velocidad lenta.
PRACTICAR




C D E F G A B C B A G F E D C
||----------------------------------------------------------||---------||
||--------------------------0---1----0----------------------||---------||
|| ------------------0---2---------------2---0--------------||---------||
||------0---2---3-------------------------------3---2---0---||---------||
||--3-------------------------------------------------------||--3------||
||----------------------------------------------------------||---------||
3 - 2 3 - 2 - 1 - 2 - 3 2 - 3
Do Re
Mi
Fa
Sol
La
Si
Do
Do Re
Mi Fa
Sol
La
Si
Do
Si
La
Sol
Mi Fa
Re Do
13




14




15


Tres primeros traste.




PRACTICAR

E F G A B C D E F G A B C D E F G
|----------------------------------------------------------0---1---3---|
|----------------------------------------------0---1---3---------------|
|--------------------------------------0---2---------------------------|
|--------------------------0---2---3-----------------------------------|
|--------------0---2---3-----------------------------------------------|
|--0---1---3-----------------------------------------------------------|

- 1 3 - 2 3 - 2 3 0 2 - 1 3 - 1 3








Do
Do
Re
Re
Mi
Mi
Mi
Fa
Fa
Sol
Sol
Sol
La
La
Si
Si
Fa
Mi Re
Mi
Fa
Sol La Si
Do
Si
La Sol
Mi
Fa
Re
Do
Mi Re
Si Do
16

Ejercicio en los tres primeros trastes
Con se trmino me refiero a cierta rea en el diapasn de la guitarra, que esta
entre los tres primeros trastes.
E F G A B C D E F G A B C D E F G
|----------------------------------------------------------0---1---3---|
|----------------------------------------------0---1---3---------------|
|--------------------------------------0---2---------------------------|
|--------------------------0---2---3-----------------------------------|
|--------------0---2---3-----------------------------------------------|
|--0---1---3-----------------------------------------------------------|

- 1 3 - 2 3 - 2 3 0 2 - 1 3 - 1 3
Los nmeros que estn abajo de la tablatura indican el dedo de la mano izquierda
que vas a utilizar para pulsar la nota en el diapasn. El signo (-) significa que no se
utiliza ningn dedo, ya que la cuerda se toca al aire.
G F E D C B A G F E D C B A G F E
|--3---1---0-----------------------------------------------------------|
|--------------3---1---0-----------------------------------------------|
|--------------------------2---0---------------------------------------|
|----------------------------------3---2---0---------------------------|
|----------------------------------------------3---2---0---------------|
|----------------------------------------------------------3---1---0---|

3 1 - 3 1 - 2 - 3 2 - 3 2 - 3 1 -

Ejercicios Meldicos
Variando la secuencia de las notas de la escala de Do mayor podemos crear una
serie de melodas.

|-------------------------------------------------------------------------||
|-------------------------------------------------------------------------||
|--------------------------------0----2----0------------------------------||
|-------0----2----0----2----3-------------------2----3----0---------------||
|---3---------------------------------------------------------3-----------||
|-------------------------------------------------------------------------||
3 - 2 - 2 3 - 2 - 2 3 - 3

|-------------------------------------------------------------------------||
|--1----------------------------------1----0------------------------------||
|------2----0----2----0---------2--------------2----0---------------------||
|--------------------------3-----------------------------3----2----0------||
|----------------------------------------------------------------------3--||
|-------------------------------------------------------------------------||
1 2 - 2 - 3 2 1 - 2 - 3 2 - 3

17
Nuevos acordes para la prctica de arpegios.

Do (C)
Bajo en la 5 Cuerda



Sol7 (G7)
Bajo en la 6 Cuerda



Sol (G)
Bajo en la 6 Cuerda




18




19




20




Spanish Study

Practicar muy despacito y no pasar al siguiente hasta haber
conseguido el anterior







































0
0 0 0 0 0 0
2 3 0 2
3
p
i

Repetir tres veces
0
0 0 0 0 0 0
2 3
0
2 3
p
i
0
0 0 0 0 0 0
2 3 0 2
3

Repetir tres veces
0
0 0 0 0 0 0
2 3 0
3 1
p
i
0
0
1
2
2
0
Mi
21





RITMO DE RUMBA 1




RITMO DE RUMBA 2














p p
G
m p i i i
p i
i / m
22



23






REDONDEO


















http://www.youtube.com/watch?v=kaAR03E9kNI


a
i p
24
SECUENCIA DE ACORDES

Sol




Mim




Do




Re





25
STAND BY ME

Intro: Sol Mim Do - Sol

Sol
When the night has come
Mim
And the land is dark
Do Re
And the moon is the only
Sol
Light we'll see
No I won't be afraid
Mim
No, I won't be afraid
Do Re
Just as long as you stand
Sol
Stand by me
And darling, darling stand by me
Mim
Oh, now, now, now,
Stand by me
Do Re
Stand, stand by me
Sol
Stand by me
If the sky that we look upon
Mim
Should trumble and fall
Do Re
And the mountains should crumble
Sol
In the sea
I won't cry, I won't cry
Mim
No, I won't shed a tear
Do Re
Just as long as you stand
Sol
Stand by me
And darling, darling stand by me
Mim
Oh, stand by me
Do Re Sol
Stand by me

SOLO

Whenever you're in trouble
Sol
won't you stand by me

Oh, now, now stand by me
Mim
Oh, stand by me

Stand by me
Sol
Stand by me, stand by me
26

TE QUIERO IGUAL

INTRO: G - D - Em - C

G D Em C
Te quiero, pero te llevaste la flor y me dejaste el florero.
G D Em C
Te quiero, me dejaste las cenizas y te llevaste el cenicero.
G D Em C
Te quiero, pero te llevaste Marzo y te rendiste en Febrero.
G D G
Primero, te quiero, igual.
G D Em C
Te quiero, te llevaste la cabeza y me dejaste es sombrero.
G D Em C
Te quiero, pero te olvidaste Abril en el ropero pero igual
G D Em C
Te quiero, no me gusta esperar pero igual te espero.
G D G
Primero, te quiero, igual.
G D Em C
Te quiero, me dejaste la florero y te llevaste la flor.
G D Em C
Te quiero, me dejaste el vestido y te llevaste el amor.
G D Em C
Te quiero, pero te olvidaste Abril en el ropero.
G D G
Primero, te quiero, igual.

C G C G C G D
No se si estoy despierto o tengo los ojos abiertos.
C G C G C G D
No se si estoy despierto o tengo los ojos abiertos.

G D Em C
Te quiero, no se si estoy despierto o tengo los ojos abiertos.
G D Em C
Se que te quiero y que me esperan mas aeropuertos.
G D Em C
Te quiero, te llevaste la vela y me dejaste el entierro.
G D G
Primero, te quiero, igual.

ACORDES: G - D - Em - C

G D Em C
Te quiero, pero te llevaste la flor y me dejaste el florero.
G D Em C
Te quiero, me dejaste las cenizas y te llevaste el cenicero.
G D Em C
Te quiero, pero te llevaste Marzo y te rendiste en Febrero.
G D G
Primero, te quiero, igual.


www.lacuerda.net


www.farhatguitarra.com



27
La Lam
Bajo en la 5 cuerda




Si7
Bajo 5 cuerda




Mi Mim
Bajo 6 cuerda






JorgeCD