Está en la página 1de 2

Quilapayun

Ventolera(TAB)
Tablatura Para Charango
Intro:
F#m, C, F#m, C, D7, F, Dm 9-11, E7sus, E7
E|-530---------------|----------------0-|-530---------------|
A|--------------2--0-|----0--2----------|--------------2--0-|
E|-------------------|-1----------------|-------------------|
C|--------2--0-------|----------0--2----|--------2--0-------|
G|-------------------|------------------|-------------------|
|----------0--3--7-|
|----0--2----------|
|-3----------------|
|------------------|
|------------------|
E|-530---------------|----------------0-|-530---------------|
A|--------------2--0-|----0--2----------|--------------2--0-|
E|-------------------|-1----------------|-------------------|
C|--------2--0-------|----------0--2----|--------2--0-------|
G|-------------------|------------------|-------------------|
|----------0--3--7-|
|----0--2----------|
|-3----------------|
|------------------|
|------------------|
E|-210---------------|------------------|-10----------------A|--------2--2--1--0-|--------1---------|------3--2--1--0--1E|-------------------|-3----------3-----|-------------------C|-------------------|------------------|-------------------G|-------------------|------------------|-------------------|-----------------|
|-------1---------|
|-3---------3-----|
|-----------------|
|-----------------|
E|-10-----------------|-10-----------------|-0--1--3---------A|------3--2--1--0--1-|------3--2--1--0--1-|----------0--1--2E|--------------------|--------------------|-----------------C|--------------------|--------------------|-----------------G|--------------------|--------------------|-----------------|----0--1--2--3--4-|
|-4----------------|
|------------------|
|------------------|
|------------------|

C
Em7
F
C
E|-0--0--0--0--5--5--0-|-10-----------------|-5--------0------|
A|-3--3--0--0--0--0--3-|------3--2--1--0--1-|-----------------|
E|-0--0--0--0--1--1--0-|--------------------|-----------------|
C|-0--0--2--2--0--0--0-|--------------------|----------0------|
G|-0--0--0--0--2--2--0-|--------------------|-5---------------|
C
Em7
F
C
E|-0--0--0--0--5--5--0-|-10-----------------|----5--5--5--5--5-|
A|-3--3--0--0--0--0--3-|------3--2--0--1--2-|----0--0--0--0--0-|
E|-0--0--0--0--1--1--0-|--------------------|----0--0--0--0--0-|
C|-0--0--2--2--0--0--0-|--------------------|----0--0--0--0--0-|
G|-0--0--0--0--2--2--0-|--------------------|-2--2--2--2--2--2-|
C
Em7
F
C
E|-0--0--0--0--5--5--0-|-10-----------------|-5--------0------|
A|-3--3--0--0--0--0--3-|------3--2--1--0--1-|-----------------|
E|-0--0--0--0--1--1--0-|--------------------|-----------------|
C|-0--0--2--2--0--0--0-|--------------------|----------0------|
G|-0--0--0--0--2--2--0-|--------------------|-5---------------|
C
Em7
F
C
E|-0--0--0--0--5--5--0-|-10-----------------|----5--5--5--5--5-|
A|-3--3--0--0--0--0--3-|------3--2--0--1--2-|----0--0--0--0--0-|
E|-0--0--0--0--1--1--0-|--------------------|----0--0--0--0--0-|
C|-0--0--2--2--0--0--0-|--------------------|----0--0--0--0--0-|
G|-0--0--0--0--2--2--0-|--------------------|-2--2--2--2--2--2-|
C
Em7
F
C
E|-0--0--0--0--5--5--0-|-10-----------------4--5--|
A|-3--3--0--0--0--0--3-|------------3--------2--0-|
E|-0--0--0--0--1--1--0-|---------------------0--0-|
C|-0--0--2--2--0--0--0-|------2--0-------0---2--0-|
G|-0--0--0--0--2--2--0-|---------------------1--2-|