Está en la página 1de 4

William Luna

Vienes y te vas(TAB)
Intro:
DO
LAm
1)-3/0------3/0------3/0--------------------------------2)-------3--------3-------3-3-3---------0---0-0/1--1-1-13)--------------------------------2---2---2-------------4)-----2--------2-------------------2-------------------5)-3--------3--------3----3-3-3---0----------------0-0-06)------------------------------------------------------DO
LAm
1)-3/0------3/0------3/0--------------------------------2)-------3--------3-------3-3-3---------0---0-0/1--1-1-13)--------------------------------2---2---2-------------4)-----2--------2-------------------2-------------------5)-3--------3--------3----3-3-3---0----------------0-0-06)------------------------------------------------------FA
MIm
1)------------------------0--------2)-------1-1--------1-1---0--------3)-----2----------2-------0---2--0-4)---3----------3---------2--------5)-3----------3-----------2---2--2-6)------------------------0--------FA
MIm
1)------------------------0--------2)-------1-1--------1-1---0--------3)-----2----------2-------0---2--0-4)---3----------3---------2--------5)-3----------3-----------2---2--2-6)------------------------0--------Se repite el intro, pero hay una variacion en la 3ra estrofa:
DO
LAm
1)-3/0------3/0------3/0--------------------------------2)-------3--------3-------3-3-3---------0---0-0/1--1-1-13)--------------------------------2---2---2-------------4)-----2--------2-------------------2-------------------5)-3--------3--------3----3-3-3---0----------------0-0-06)------------------------------------------------------DO
LAm
1)-3/0------3/0------3/0--------------------------------2)-------3--------3-------3-3-3---------0---0-0/1--1-1-13)--------------------------------2---2---2-------------4)-----2--------2-------------------2-------------------5)-3--------3--------3----3-3-3---0----------------0-0-06)------------------------------------------------------FA
MIm
1)------------------------0--0-3-0---------------2)-------1-1--------1-1---0--------3-0-0-------0-3)-----2----------2-------0--------------2-0-2---4)---3----------3---------2----------------------5)-3----------3-----------2----------------------6)------------------------0----------------------FA
MIm
1)------------------------0--------2)-------1-1--------1-1---0--------3)-----2----------2-------0---2--0--

4)---3----------3---------2--------5)-3----------3-----------2---2--2-6)------------------------0--------DO
LAm
Ay yo no quiero verme contigo
DO
LAm
no sabes cuanto sufro cario
FA
(MIm)-SOL
no se si soy feliz lejos de tiiiiii
FA
SOL
o soy feliz estando contigo
DO
LAm
Un da me amas luego me olvidas
DO
LAm
un da me amas luego te olvidas
FA
(MIm)-SOL
no se si soy feliz lejos de tiiiiii
FA
SOL
o soy feliz estando contigo
FA
Vienes
FA
vienes
FA
vienes
FA
vienes

SOL#
vienes y te vas
SOL#
vienes y te vas
SOL#
vienes y te vas
SOL#
vienes y te vas

Solo:
DO
LAm
1)---0-0-0-0-3--------------------------------2)-3-3-3-3-3-1-3/1-1-3-1----------------------3)-0-----------0-0-0-0-0--2-2-------2--2-2-2--4)------------------------2-2-2---2----2-2-2--5)------------------------------0-------------6)--------------------------------------------DO
LAm
1)---0-0-0-0-3--------------------------------2)-3-3-3-3-3-1-3/1-1-3-1----------------------3)-0-----------0-0-0-0-0--2-2-------2--2-2-2--4)------------------------2-2-2---2----2-2-2--5)------------------------------0-------------6)--------------------------------------------FA
MIm
1)------------------------0--0-3-0---------------2)-------1-1--------1-1---0--------3-0-0-------0-3)-----2----------2-------0--------------2-0-2---4)---3----------3---------2----------------------5)-3----------3-----------2----------------------6)------------------------0----------------------FA
MIm
1)------------------------0--------2)-------1-1--------1-1---0--------3)-----2----------2-------0---2--0-4)---3----------3---------2--------5)-3----------3-----------2---2--2-6)------------------------0--------DO
LAm

1)---0-0-0-0-3---------------------------------2)-3-----------3/1-0-1-0-----------------------3)------------------------2-2-------2-2--2-2-2-4)---2-2-2-2-2----------------2---2------------5)-3-----------3-3-3-3-3--0-0---0--------0-0-0-6)---------------------------------------------DO
LAm
1)---0-0-0-0-3---------------------------------2)-3-----------3/1-0-1-0-----------------------3)------------------------2-2-------2-2--2-2-2-4)---2-2-2-2-2----------------2---2------------5)-3-----------3-3-3-3-3--0-0---0--------0-0-0-6)---------------------------------------------FA
MIm
1)------------------------0--0-3-0---------------2)-------1-1--------1-1---0--------3-0-0-------0-3)-----2----------2-------0--------------2-0-2---4)---3----------3---------2----------------------5)-3----------3-----------2----------------------6)------------------------0----------------------FA
MIm
1)------------------------0--------2)-------1-1--------1-1---0--------3)-----2----------2-------0---2--0-4)---3----------3---------2--------5)-3----------3-----------2---2--2-6)------------------------0---------

INTRO:
Arpegio
C9 Am (2 veces)
F E
(2 Veces)(bis)
A yo no quiero verme contigo
C9
Am
no sabes cuanto sufro cario
C9
Am
no se si soy feliz lejos de ti...
F
Em
o soy feliz estando contigo
F
Em
Un dia me amas luego me olvidas
C9
Am
un dia me amas luego te olvidas
C9
Am
no se si soy feliz lejos de ti...
F
Em
o soy feliz estando contigo
F
Em
Coro:
Vienes, vienes y te vas
F
G
Vienes, vienes y te vas
F
G
Vienes, vienes y te vas
F
G
Vienes, vienes y te vas.
F
G
Repite Intro:

A yo no quiero.......
Por eso; vienes, vienes y te vas(4 VECES)