Está en la página 1de 6

Victor Manuel

Slo pienso en t(TAB)


guitarra 1

E||-----------------0----|--0----------------|----------------------|
B||------------0---------|-------------------|-----------------0----|
G||-------0--------------|-------------------|-------0----0---------|
D||--2-------------------|--2----------------|--2-------------------|
A||----------------------|-------------------|----------------------|
E||----------------------|-------------------|----------------------|

--0----------------|------------2--------|------------3---------|
-------------------|------------3--------|------------3---------|
-------------------|-------2-------------|-------0---------0----|
-------------------|--0------------------|----------------------|
-------------------|---------------------|----------------------|
-------------------|---------------------|--3-------------------|

--0---------2--------|------------3---------|------------2---------|
--1---------3--------|------------3---------|------------3---------|
-------0----2--------|-------0---------0----|-------2---------2----|
---------------------|----------------------|--0-------------------|
---------------------|----------------------|----------------------|
---------------------|--3-------------------|----------------------|

------------0---------|------------2---------|------------0---------|
------------1---------|------------3---------|------------1---------|
------------0----0----|-------2---------2----|------------0----0----|
-------2--------------|--0-------------------|-------2--------------|
--3-------------------|----------------------|--3-------------------|
----------------------|----------------------|----------------------|

--0---------2---------|------------3---------|------------2---------|
--1---------3---------|------------3---------|------------3---------|
-------0----2----2----|-------0---------0----|-------2---------2----|
----------------------|----------------------|--0-------------------|
----------------------|----------------------|----------------------|
----------------------|--3-------------------|----------------------|

------------0---------|----------------------|------------2---------|
------------1---------|------------2---------|------------3---------|
------------0----0----|------------2----2----|-------2---------2----|
-------2--------------|-------2--------------|--0-------------------|
--3-------------------|--0-------------------|----------------------|
----------------------|----------------------|----------------------|

--2---------2---------|------------0---------|------------2---------|
--3---------3---------|------------1---------|------------3---------|
-------2---------2----|------------2----2----|-------2---------2----|
----------------------|-------2--------------|--0-------------------|
----------------------|--0-------------------|----------------------|
----------------------|----------------------|----------------------|

------------3---------|------------0---------|----------------------|
------------3---------|------------1---------|-----------------2----|

-------0---------0----|------------0----0----|------------2---------|
----------------------|-------2--------------|-------2--------------|
----------------------|--3-------------------|--0-------------------|
--3-------------------|----------------------|----------------------|

--0----------------|------------3---------|------------2---------|
-------------------|------------3---------|------------3---------|
-------------------|-------0---------0----|-------2---------2----|
-------------------|----------------------|--0-------------------|
-------------------|----------------------|----------------------|
-------------------|--3-------------------|----------------------|

----------------------|--0----------------|------------2--------|
-----------------2----|-------------------|------------3--------|
------------2---------|-------------------|-------2-------------|
-------2--------------|-------------------|--0------------------|
--0-------------------|-------------------|---------------------|
----------------------|-------------------|---------------------|

------------3---------|--0---------2--------|------------3--------|
------------3---------|--1---------3--------|------------3--------|
-------0---------0----|-------0----2--------|-------0-------------|
----------------------|---------------------|---------------------|
----------------------|---------------------|---------------------|
--3-------------------|---------------------|--3------------------|

------------3--------|------------2--------|------------3--------|
------------3--------|------------3--------|------------3--------|
-------0-------------|-------2-------------|-------0-------------|
---------------------|--0------------------|---------------------|
---------------------|---------------------|---------------------|
--3------------------|---------------------|--3------------------|

---------------------|------------2--------|------------3--------|
------------1--------|---------------------|---------------------|
------------0--------|-------2-------------|-------0-------------|
-------2-------------|--0------------------|---------------------|
--3------------------|---------------------|---------------------|
---------------------|---------------------|--3------------------|

--0---------2--------|---------------------|---------------------|
--1---------3--------|------------1--------|------------1--------|
-------0----2--------|------------0--------|------------0--------|
---------------------|-------2-------------|-------2-------------|
---------------------|--3------------------|--3------------------|
---------------------|---------------------|---------------------|

------------2--------|--0---------2--------|----------------------|
------------3--------|--1---------3--------|-----------------0----|
-------2-------------|-------0----2--------|-------0----0---------|
--0------------------|---------------------|--2-------------------|
---------------------|---------------------|----------------------|
---------------------|---------------------|----------------------|

--0----------------|-----------------0----|--0----------------|
-------------------|------------0---------|-------------------|
-------------------|-------0--------------|-------------------|
-------------------|--2-------------------|--2----------------|
-------------------|----------------------|-------------------|
-------------------|----------------------|-------------------|

-----------------2----|------------3---------|--0---------2--------|
------------3----3----|------------3---------|--1---------3--------|
-------2---------2----|-------0---------0----|-------0----2--------|
--0-------------------|----------------------|---------------------|
----------------------|----------------------|---------------------|
----------------------|--3-------------------|---------------------|

------------0------0--|------------0----------|--0----------2--------|
----------------------|-------0---------------|--1----------3--------|
-------0--------------|--0-----------------0--|----------0--2--------|
--2-------------------|-----------------2-----|-------2--------------|
----------------------|-----------------------|----------------------|
----------------------|-----------------------|----------------------|

------------3---------|------------2---------|------------0---------|
------------3---------|------------3---------|------------1---------|
-------0---------0----|-------2---------2----|------------0----0----|
----------------------|--0-------------------|-------2--------------|
----------------------|----------------------|--3-------------------|
--3-------------------|----------------------|----------------------|

------------2---------|------------0---------|--0---------2---------|
------------3---------|------------1---------|--1---------3---------|
-------2---------2----|------------0----0----|-------0----2----2----|
--0-------------------|-------2--------------|----------------------|
----------------------|--3-------------------|----------------------|
----------------------|----------------------|----------------------|

------------3---------|------------2---------|------------0---------|
------------3---------|------------3---------|------------1---------|
-------0---------0----|-------2---------2----|------------0----0----|
----------------------|--0-------------------|-------2--------------|
----------------------|----------------------|--3-------------------|
--3-------------------|----------------------|----------------------|

----------------------|------------2----------|--2---------------2----|
------------2---------|------------3----------|--3----------3---------|
------------2----2----|-------2------------2--|----------2------------|
-------2--------------|--0--------------0-----|-------0---------------|
--0-------------------|-----------------------|-----------------------|
----------------------|-----------------------|-----------------------|

------------0---------|------------2---------|------------3---------|
------------1---------|------------3---------|------------3---------|
------------2----2----|-------2---------2----|-------0---------0----|
-------2--------------|--0-------------------|----------------------|
--0-------------------|----------------------|----------------------|
----------------------|----------------------|--3-------------------|

------------0---------|----------------------|--0----------------|
------------1---------|-----------------2----|-------------------|
------------0----0----|------------2---------|-------------------|
-------2--------------|-------2--------------|-------------------|
--3-------------------|--0-------------------|-------------------|
----------------------|----------------------|-------------------|

------------3---------|------------2---------|------------0----------|
------------3---------|------------3---------|--------------------2--|
-------0---------0----|-------2---------2----|-----------------2-----|

----------------------|--0-------------------|-------2---------------|
----------------------|----------------------|--0--------------------|
--3-------------------|----------------------|-----------------------|

--0---------0--------|------------2--------|------------3---------|
-------2-------------|------------3--------|------------3---------|
---------------------|-------2-------------|-------0---------0----|
---------------------|--0------------------|----------------------|
---------------------|---------------------|----------------------|
---------------------|---------------------|--3-------------------|

--0---------2--------|------------3--------|------------3--------|
--1---------3--------|------------3--------|------------3--------|
-------0----2--------|-------0-------------|-------0-------------|
---------------------|---------------------|---------------------|
---------------------|---------------------|---------------------|
---------------------|--3------------------|--3------------------|

------------2--------|------------3--------|---------------------|
------------3--------|------------3--------|------------1--------|
-------2-------------|-------0-------------|------------0--------|
--0------------------|---------------------|-------2-------------|
---------------------|---------------------|--3------------------|
---------------------|--3------------------|---------------------|

------------2--------|------------3--------|--0---------2--------|
---------------------|---------------------|--1---------3--------|
-------2-------------|-------0-------------|-------0----2--------|
--0------------------|---------------------|---------------------|
---------------------|---------------------|---------------------|
---------------------|--3------------------|---------------------|

---------------------|---------------------|------------2--------|
------------1--------|------------1--------|------------3--------|
------------0--------|------------0--------|-------2-------------|
-------2-------------|-------2-------------|--0------------------|
--3------------------|--3------------------|---------------------|
---------------------|---------------------|---------------------|

--0---------2--------|----------------------|--0----------------|
--1---------3--------|-----------------0----|-------------------|
-------0----2--------|-------0----0---------|-------------------|
---------------------|--2-------------------|-------------------|
---------------------|----------------------|-------------------|
---------------------|----------------------|-------------------|

-----------------0----|--0----------------|-----------------2----|
------------0---------|-------------------|------------3----3----|
-------0--------------|-------------------|-------2---------2----|
--2-------------------|--2----------------|--0-------------------|
----------------------|-------------------|----------------------|
----------------------|-------------------|----------------------|

------------3---------|--0---------2--------|----------|----------|----------||
------------3---------|--1---------3--------|----------|----------|----------||
-------0---------0----|-------0----2--------|----------|----------|----------||
----------------------|---------------------|----------|----------|----------||
----------------------|---------------------|----------|----------|----------||
--3-------------------|---------------------|----------|----------|----------||

INTRO
Em
Em
D G
C
D
G
e --------0------------------------0--------0-----2----3----0----2--3--|
B ------0--------------------------0------0-------3----0--3----3----3--|
G ----0----------------------------0----0-------2----0--------------0--|
D --2------------------------------2--2-------0----------------0-------|
A ----------2-h-3-p-2-h-3-p-2-h-3-------------------------3------------|
E ---------------------------------------------------3--------------3--|

G
D
Cmaj7
D
Em
C
D
Ella fue a nacer en una fra sala de hospital
G
D
C
A7
D
cuando vio la luz su frente se quebr como el cristal
Am
D
G
Cmaj7
A7
porque entre los dedos a su padre como un pez se le escurri
G
D
Cmaj7 D
G
C D
hace un mes cumpli los veintiseis, slo pienso en ti.

G
D
G
Hey, slo pienso en ti
Am7
D
G
juntos de la mano se les ve por el
Am7
D
G
no puede haber nadie en este mundo
Cmaj7 D
G
C D Em
hey, slo pienso en ti.

C
D
C
jard - - n
G/F# Em
tan feliz (A)|-2-h-3-p-2-h-3-p-2-h-3-|
C D

G
D
Cmaj7
D
Em
C D
El naci de pie, le fueron a parir entre algodn
G
D
C
A7
D
su padre pens que aquello era un castigo del seor
Am
D
G
Cmaj7
le busc un lugar para olvidarlo y siendo nio lo intern
G
D
Cmaj7 D
G
pronto cumplir los treinta y tres, slo pienso en ti.

G
D
G
Hey, slo pienso en ti
Am7
D
G
juntos de la mano se les ve por el
Am7
D
G
no puede haber nadie en este mundo
Cmaj7 D
G
C D Em
hey, slo pienso en ti.

A7
C

C
D
C
jard - - n
G/F# Em
tan feliz (A)|-2-h-3-p-2-h-3-p-2-h-3-|
C D

G
D
Cmaj7
D
Em
C D
En el comedor les sientan separados a comer
G
D
C
A7
D
si se miran bien les corren mil hormigas por los pies
Am
D
G
Cmaj7
ella le regala alguna flor y l le dibuja en un papel
G
D
Cmaj7 D
G
C D
algo parecido a un corazn, slo pienso en ti.

A7

G
D
G
Hey, slo pienso en ti
Am7
D
G
juntos de la mano se les ve por el
Am7
D
G
no puede haber nadie en este mundo
C
D
G
C D
hey, slo pienso en ti,
G
D
G
hey, slo pienso en ti
Am7
D
G
juntos de la mano se les ve por el
Am7
D
G
no puede haber nadie en este mundo
C
D
G
hey, slo pienso en ti.

C
D
C
jard - - n
G/F# Em
tan feliz (A)|-2-h-3-p-2-h-3-p-2-h-3-|

C
D
C
jard - - n
G/F# Em
tan feliz (A)|-2-h-3-p-2-h-3-p-2-h-3-|