Está en la página 1de 2

Victor Jara

Ni Chicha ni Limona(TAB)
Intro :
G
D
A7
E||----------10----|---7--7--7--10--7----|--5--5--5--7--5----|--3--3--7--5---3--|
B||----------12----|---8--8--8--12--8----|--7--7--7--8--7----|--5--5--8--7---5--|
G||----------------|---------------------|-------------------|------------------|
D||----------------|---------------------|-------------------|------------------|
A||----------------|---------------------|-------------------|------------------|
E||----------------|---------------------|-------------------|------------------|

D
G
D
A7
--2--------10-----|---7--7--7--10--7----|--5--5--5--7--5----|--3--3--7--5---3--|
--3--------12-----|---8--8--8--12--8----|--7--7--7--8--7----|--5--5--8--7---5--|
------------------|---------------------|-------------------|------------------|
------------------|---------------------|-------------------|------------------|
------------------|---------------------|-------------------|------------------|
------------------|---------------------|-------------------|------------------|
D
--2---------------|
--3---------------|
------------------|
------------------|
------------------|
------------------|
D
Arrmese ms p'ac,
A7
D
aqu donde el sol calienta,
G
D
si ust ya est acostumbrao
G
D
a andar dando volteretas
G
D
/:y ningn dao le har
A7
D
estar donde las papas queman.:/
G
D
/:Ust no es n,
G
D
no es chicha ni limon
G
D
se lo pasa manoseando,

A7
D
caramba zamba, su dignidad.:/
Intro
La fiesta ya ha comenzao
y la cosa est que arde.
Ust que era el ms quedao,
se quiere aduear del baile,
/:total a los olfatillos
no hay olor que se les escape:/
Ust no es n...
Intro
Si queremos ms fiestoco
primero hay que trabajar
y tendremos pa' toitos
abrigo, pan y amistad.
Y si usted no est de acuerdo
es cuestin de ust no ms:
la cosa va pa'elante
y no piensa recular.
Ust no es n...
Intro
Ya djese de patillas,
venga a remediar su mal,
si aqu debajito'el pongo
no tengo ningn pual.
Y si sigue hociconeando,
le vamos a expropiar
las pistolas y la lengua
y toito lo dems.
Ust no es n...
Intro

Acordes usados :
G
D
A7
E||---3---2---0---B||---3---3---2---G||---0---2---0---D||---0---0---2---A||---2---0---0---E||---3-------0----