Está en la página 1de 2

Victor Jara

La partida(TAB)
|-0---0---------------------------|-------------3-2-0-2--2-0--0-------|
|----3----0-3-2-------------------|----------1-----------------3-1-0--|
|---------------2---2---4-2-0-----|--0--0-2-4-------------------------|
|-----------------------------4-2-|-2--------------------------------2|
|---------------------------------|-----------------------------------|
|---------------------------------|-----------------------------------|

|------------------|-------------3-2-0-2---2-0--0-----|----------------|
|------------------|----------1------------------3-1-0|----------------|
|-2----2--4-2-0----|--0--0-2-4------------------------|2---2--4-2-0----|
|---------------4-2|-2-------------------------------2|-------------4-2|
|------------------|----------------------------------|----------------|
|------------------|----------------------------------|----------------|

PARTE DEL BOMBO Y DE LA QUENA


|-----------3-2-0-2---2-0---0-------|---------------|
|---------1------------------3-1-0--|---------------|
|-0--0-2-4--------------------------|2--2--4-2-0----|
|----------------------------------2|------------4-2|
|-----------------------------------|---------------|
|-----------------------------------|---------------|

FINAL CON EL CHARANGO.

LA Partida
Intro: D/G - Am7/G - Gm6 ... [charango]
1 Parte
Em7+/G*
A*- A/G#*- Am*
C*- C7+*
Em7+/G*
charango
---------------|---------------------------------|----------------------3-5---3--|--2------------------------------|--------------------------4----|----2--------2-----2-4-0---------|--2-4-0-----------2------------|-------------------------4-2-----|--------4-2--------------------|---------------------------------|-------------------------------|---------------------------------|-----------------

...* acordes de

Em7+/G*
A*- A/G#*- Am*
C*- C7+*
Am*
Em7+/G*
---------------|---------------------------------|-----------------|----------------------3-5---3--|--2------------------------------|-----------------|--------------------------4----|----2--------2-----2-4-0---------|--2-4-0----------|--2-4-0-----------2------------|-------------------------4-2-----|--------4-2------|--------4-2--------------------|---------------------------------|-----------------|-------------------------------|---------------------------------|-----------------|--------- Guitarra entra:
Em
Em
A A7 - Am
C - C7
Am
Em
--0------------|---------------------------------|-----------------|------------------0---3-5---3--|--2------------------------------|-----------------|------------------0-------4----|----2--------2-----2-4-0---------|--2-4-0----------|--2-4-0-----------2------------|-------------------------4-2-----|--------4-2------|--------4-2--------------------|---------------------------------|-----------------|-------------------------------|---------------------------------|-----------------|----------------Em
A A7 - Am
C C7
Am
Em
--0------------|---------------------------------|-----------------|------------------0---3-5---3--|--2------------------------------|-----------------|------------------0-------4----|----2--------2-----2-4-0---------|--2-4-0----------|--2-4-0-----------2------------|-------------------------4-2-----|--------4-2------|--------4-2--------------------|---------------------------------|-----------------|-------------------------------|---------------------------------|-----------------|-----------------

2 Parte:
C
Am
Bm
Am
Em
A A7 Am
C C7
Am
Em
------------------3-2-0-2----2-0--0-----------0----|--0-----------------|---------------------------------0-1-3---------------------3-1-0-----2----|--1-----------------|---------------------------0---2-------------------------------------2----|--2----2-4-0--------|--2-4-0-------2-4-0------2---------------------------------------2---2----|--2----------4-2----|--------4-2---------4-2---------------------------------------------------|--------------------|--------------------------------------------------------------------------|--------------------|------------------------

Acordes
Charango
D/G
:
Am7/G :
Gm6
:
Em7+/G :
A/G#
:
C7+/G :

Usados, de cuerda delgada a ms gruesa:


Guitarra
2|0|0|2|0
A7 : 0|2|1|2|0|0
3|0|0|0|0
C7 : 0|0|0|2|3|3
0|1|0|2|0
0|2|0|3|0
0|0|0|1|1
0|2|0|0|0