Está en la página 1de 4

Victor Jara

el cigarrito(TAB)
Intro:
(C)
F
C
F
G
F
E||----------------|-----------------------|----------------------|---------------------|
B||----------------|-------1----1----------|-------1----1----1----|------3----3----1----|
G||----------------|-----2------2----0---0-|-----2------2------2--|-----4-----4------2--|
D||-------------2--|--3------3---------2---|--3------3-----3------|--5-----5-----3------|
A||----------3-----|---------------3-------|----------------------|---------------------|
E||----------------|-----------------------|----------------------|---------------------|

G
C/E
C
F
C
-----------------------|-----------------------|------------------------|
-------3----3----1---1-|-------1----1----------|------1------1----------|
-----4------4------0---|-----0------0----0---0-|----2---2----2----0---0-|
--5------5-----2-------|-------------------2---|--3-------3---------2---|
-----------------------|--3------3-----3-------|----------------3-------|
-----------------------|-----------------------|------------------------|

F
G
F
G
C/E
-----------------------|-----------------------|------------------------|
------1------1----1----|------3------3----1----|------3------3----1---1-|
----2---2----2------2--|----4---4----4------2--|----4---4----4------0---|
--3-------3-----3------|--5-------5-----3------|--5-------5-----2-------|
-----------------------|-----------------------|------------------------|
-----------------------|-----------------------|------------------------|

C
F
C
F
C
-----------------------|-----------------------||----------------------|
-------1----1----1---1-|-------1----1----1---1-||--------1----1-----1--|
-----0------0------2---|-----0------0------2---||*-----0------0-----0--|
---------------3-------|---------------3-------||*---------------------|
--3------3-------------|--3------3-------------||---3------3-----3-----|
-----------------------|-----------------------||----------------------|
Voy a_ha Verso: (* rasgueo de dedo ndice hacia arriba)
Em
F
G
C
-----0*-----0-----0--|-----1*-----1-----1--|-----3*-----3-----3--|-----0*----0-----0--|
-----0*-----0-----0--|-----1*-----1-----1--|-----3*-----3-----3--|-----1*----1-----1--|
-----0*-----0-----0--|-----2*-----2-----2--|-----4*-----4-----4--|-----0*----0--0--0--|
-----2*-----2--2--2--|--3--3*-----3--3--3--|-----5*-----5--5--5--|-----2*----2--2--2--|
-----2*--------2-----|-----3*--------3-----|-----5*--------5-----|---3----3-----3-----|
---0-----0-----0-----|---------1-----1-----|---3-----3-----3-----|--------------------|

cer me_un ciga rri


si no

to

ca -

so

tengo

ta ba

co

Em
F
G
C
-----0*-----0-----0--|-----1*-----1-----1--|-----3*-----3-----3--|-----0*----0----------|
-----0*-----0-----0--|-----1*-----1-----1--|-----3*-----3-----3--|-----1*----1----------|
-----0*-----0-----0--|-----2*-----2-----2--|-----4*-----4-----4--|-----0*----0----0---0-|
-----2*-----2--2--2--|--3--3*-----3--3--3--|-----5*-----5--5--5--|-----2*----2------2---|
-----2*--------2-----|-----3*--------3-----|-----5*--------5-----|---3----3-----3-------|
---0-----0-----0-----|---------1-----1-----|---3-----3-----3-----|----------------------|
ten - go de_onde sa - co
lo ms
cier toes que no pi - to.
A - ya
Coro:
F
C
F
G
F
-----------------------|-----------------------|----------------------|
-------1----1----------|-------1----1----1---1-|-------3----3----1----|
-----2------2----0---0-|-----2------2------2---|-----4------4------2--|
--3------3---------2---|--3------3-----3-------|--5------5-----3------|
---------------3-------|-----------------------|----------------------|
-----------------------|-----------------------|----------------------|
yay
me que - rs,
a - ya - yay
me que G
C/E
C
F
C
-----------------------|-----------------------|-----------------------|
-------3----3----1---1-|-----------------------|-------1----1----------|
-----4------4------0---|-------0----0----0---0-|-----2------2----0---0-|
--5------5-----2-------|-----2------2------2---|--3------3---------2---|
-----------------------|--3------3-----3-------|---------------3-------|
-----------------------|-----------------------|-----------------------|
rs
a - ya - yay.
F
G
F
G
C/E
-----------------------|-----------------------|------------------------|
-------1----1----1---1-|-------3----3----1---1-|------3------3----1---1-|
-----2------2------2---|-----4------4------2---|----4---4----4------0---|
--3------3-----3-------|--5------5-----3-------|--5-------5-----2-------|
-----------------------|-----------------------|------------------------|
-----------------------|-----------------------|------------------------|

C
------------------------||
-------1----1----1---1--||
-----0------0------2---*||
---------------3-------*||
--3------3--------------||
------------------------||
Verso:
Voy a hacerme un cigarrito
con mi bolsa tabaquera
lo fumo, boto la cola
y recjala el que quiera.

Coro:
Ayayay, me quers,
ayayay, me quers,
aya...
Interludio:
C
F
C
-----------------------|-----------------------|
-----------------------|-------1----1----------|
-------0----0----0---0-|-----2------2----0---0-|
-----2------2------2---|--3------3---------2---|
--3------3-----3-------|---------------3-------|
-----------------------|-----------------------|
.yay.
F
G
F
G
C/E
-----------------------|-----------------------|------------------------|
-------1----1----1---1-|-------3----3----1---1-|------3------3----1---1-|
-----2------2------2---|-----4------4------2---|----4---4----4------0---|
--3------3-----3-------|--5------5-----3-------|--5-------5-----2-------|
-----------------------|-----------------------|------------------------|
-----------------------|-----------------------|------------------------|

C
G6
F7
-------------------||-----0---0---0---0---0---0-|----0---0---0---0---0---0-||
-------1----1------||-----------3-----------3---|----------1-----------1---||
-----0------0------||*------4-----------4-------|------2-----------2------*||
-------------------||*--5-----------5-----------|--3-----------3----------*||
--3------3---------||---------------------------|--------------------------||
-------------------||---------------------------|--------------------------||

C/E
C
F
C
F
C
----------|-----------------------|----------------------|--------------------|
----1---1-|-------1----1----1---1-|-------1----1----1----|-------1----1----1--|
------0---|-----0------0------2---|-----0------0------2--|-----0------0----0--|
--2-------|---------------3-------|---------------3------|--------------------|
----------|--3------3-------------|--3------3------------|--3------3-----3----|
----------|-----------------------|----------------------|--------------------|

Verso:
Cuando amanezco con fro
prendo un cigarro de a vara
y me caliento la cara

con el cigarro encendo.


Coro:
Ayayay me quers,
ayayay me quers,
ayayay.

Coda:
C7
----0---0---0---0----0--||
------------------0-----||
--------------0---------||
----------2-------------||
------3-----------------||
--0---------------------||

Acordes usados:
G6
F7
C7
---0----2----0------3----0----0------4----2----0------5----1----2------0----0----3-----------2----0----