Está en la página 1de 2

SIN MIEDO A NADA-A.

UBAGO
INTRO
Cm
e|---------3---------------3--------------3----------|
B|-----3-----3---------3-----3---------3-----3-------|
G|---0---0-----0-----0---0-----0-----0-----0---0-----|
D|---------------------------------------------------|
A|---------------------------------------------------|
E|-3-----------------3--------------------3----------|
sino puedes dar un arpegiado TMB al terminar esta intro
por dos das esto..
Cm*** solo dos abajo dos arriba uno abajo dos arriba uno
abajo y uno arriba y otro abajo y listo te describo el
ritmo de la cancion.
DOm
FAm
Me muero por suplicarte que no te vayas mi vida
SIb
RE#5
me muero por escucharte decir las cosas que nunca digas
DOm7
FAm
mas me cay y te marchas aun tengo la esperanza
SIb
RE#
de ser capaz algn da de no esconder las heridas
SOL
SOL#
SIb
que me duelen al pensar que te voy queriendo cada da
FAm
SOL# SIb DOm
un poco mas cuanto tiempo vamos a esperar

RE#

Cm
e|---------3---------------3--------------3----------|
B|-----3-----3---------3-----3---------3-----3-------|
G|---0---0-----0-----0---0-----0-----0-----0---0-----|
D|---------------------------------------------------|
A|---------------------------------------------------|
E|-3-----------------3--------------------3----------|
Otra vez de nuevo la intro y sigues con el ritmo normal.
DOm
FAm
Me muero por abrazarte y que me abraces tan fuerte
SIb
RE#5
me muero por divertirte y que me beses cuando despierte
DOm7
FAm aqui un ahogo
acomodado en tu pecho hasta que el sol aparezca
SIb
RE#
me voy perdiendo en tu aroma me voy perdiendo en tus labios
SOL
SOL#
SIb
que se acercan susurrando palabras que llegan a este pobre
FAm
SOL# - SIb - DOm
corazn voy sintiendo el fuego en mi interior

RE#

Coro:
SOL
SIb
RE#
Me muero por conocerte saber que es lo que piensas
SOL
SOL#
SIb
RE#
abrir todas tus puertas y vencer estas tormentas
SOL
SOL#
SIb
que nos quieran abatir centrar en tus ojos mi mirada
SOL
SOL#
SIb
RE#
cantar contigo al alba besarnos hasta desgastarnos
SOL
SOL#
SIb
RE#
nuestros labios y ver en tu rostro cada da
SOL
SOL#
SIb
RE#

RE#

crecer esa semilla crear soar dejar todo


FAm
SOL# - SIb - DOm
surgir aparcando el miedo a sufrir
Cm
e|---------3---------------3--------------3----------|
B|-----3-----3---------3-----3---------3-----3-------|
G|---0---0-----0-----0---0-----0-----0-----0---0-----|
D|---------------------------------------------------|
A|---------------------------------------------------|
E|-3-----------------3--------------------3----------|
Otra vez de nuevo la intro y sigues con el ritmo normal.
DOm
FAm
Me muero por explicarte lo que pasa por mi mente
SIb
RE#
me muero por entregarte y ser capaz de sorprenderte
DOm7
FAm
sentir cada da ese flechazo al verte
SIb
RE#
que ms dar lo que digan que ms dar lo que piensen
SOL
SOL#
SIb
si estoy loco es cosa ma y ahora vuelvo a mirar el mundo
FAm
SOL# - SIb - DOm
a mi favor vuelvo a ver brillar la luz del sol

RE#

Coro:
SOL
SIb
RE#
Me muero por conocerte saber que es lo que piensas
SOL
SOL#
SIb
RE#
abrir todas tus puertas y vencer estas tormentas
SOL
SOL#
SIb
que nos quieran abatir centrar en tus ojos mi mirada
SOL
SOL#
SIb
RE#
cantar contigo al alba besarnos hasta desgastarnos
SOL
SOL#
SIb
RE#
nuestros labios y ver en tu rostro cada da
SOL
SOL#
SIb
RE#
crecer esa semilla crear soar dejar todo
FAm
SOL# - SIb - DOm
surgir aparcando el miedo a sufrir
SOL
SIb
RE#
Me muero por conocerte saber que es lo que piensas
SOL
SOL#
SIb
RE#
abrir todas tus puertas y vencer estas tormentas
SOL
SOL#
SIb
que nos quieran abatir centrar en tus ojos mi mirada
SOL
SOL#
SIb
RE#
cantar contigo al alba besarnos hasta desgastarnos
SOL
SOL#
SIb
RE#
nuestros labios y ver en tu rostro cada da
SOL
SOL#
SIb
RE#
crecer esa semilla crear soar dejar todo
FAm
SOL# - SIb - DOm
surgir aparcando el miedo a sufrir.
Cm
e|---------3---------------3--------------3--------3-|
B|-----3-----3---------3-----3---------------3-------|
G|---0---0-----0-----0---0-----0---------------0-----|
D|---------------------------------------------------|
A|---------------------------------------------------|
E|-3-----------------3--------------------3----------|
termina con el arpegeo de la intro

RE#

RE#