Está en la página 1de 3

Enviado por Manuel

Antonio Vega - El sitio de mi recreo(TAB)


Introduccin=solo de piano
E
B
G
D
A
E

G
Em
:----------------|----------------|----------------|----------------|
:--------3-------|------3---------|--------3-------|------3---------|
:----0-------0---|----0-------0---|----0-------0---|----0-------0---|
:--4---4---4---4-|--4-------4---4-|--4---4---4---4-|--4-------4---4-|
:----------------|----------------|----------------|----------------|
:3---------------|3---------------|0---------------|0---------------|

E
B
G
D
A
E

C
Am7 (Sin cortar el sonido)
:----------------|----------------|----------------|----------------|
:--------3-------|------3---------|--------1-------|------1---0-----|
:----0-------0---|----0-------0---|----0-------0---|----4-------4---|
:--5---5---5---5-|--5-------5---5-|--2---2---2---2-|--2-----------20|
:3---------------|3---------------|0---------------|0---------------|
:----------------|----------------|----------------|----------------|

E
B
G
D
A
E

D/F#
(Sin cortar el sonido) G
:----------------|------------------|----------------|
:--------0-1-0---|------------------|------0---------|
:------2-------2-|-----2------------|---2---2--------|
:----0-----------|-4/5---0----------|--5------5------|
:--0-------------|------------------|5---------------|
:2---------------|------------------|------------3---|

Primera estrofa
Donde nos llevo la imaginacin
Donde con los ojos cerrados
Viento que en su murmullo parece hablar mueve el mundo y con gracia
le ves bailar
G
Em
E :----------------|----------------|----------------|----------------|
B :--------3-------|------3---------|--------3-------|------3---------|
G :----0-------0---|----0-------0---|----0-------0---|----0-------0---|
D :--4---4---4---4-|--4-------4---4-|--4---4---4---4-|--4-------4---4-|
A :----------------|----------------|----------------|----------------|
E :3---------------|3---------------|0---------------|0---------------|
Se divisan infinitos
y con el escenario de mi
E
B
G
D
A
E

campos

Am
D
:----------------|----------------|----------------|----------------|
:----------------|----------------|--------3-------|------3---------|
:--------0-------|------0---------|----0-------0---|----0-------0---|
:----2-------2---|----2-------2---|--4---4---4---4-|--4-------4---4-|
:--3---3---3---3-|--3-------3---3-|5---------------|5---------------|
:5---------------|5---------------|----------------|----------------|
Hogar
E
B
G
D
A
E

D
:------0---------|
:---------3------|
:----0-------0---|
:--4-------------|
:5---------------|
:----------------|

Donde se cre la primera luz


junto a la semilla de cielo azul
Mar bandeja de plata mar infernal
es un temperamento natural
G
Em
E :----------------|----------------|----------------|----------------|
B :--------3-------|------3---------|--------3-------|------3---------|
G :----0-------0---|----0-------0---|----0-------0---|----0-------0---|
D :--4---4---4---4-|--4-------4---4-|--4---4---4---4-|--4-------4---4-|
A :----------------|----------------|----------------|----------------|
E :3---------------|3---------------|0---------------|0---------------|
Volver a ese lugar
poco o nada cuesta

E
B
G
D
A
E

donde nac
ser uno ms
Am
D
:----------------|----------------|----------------|----------------|
:----------------|----------------|--------3-------|------3---------|
:--------0-------|------0---------|----0-------0---|----0-------0---|
:----2-------2---|----2-------2---|--4---4---4---4-|--4-------4---4-|
:--3---3---3---3-|--3-------3---3-|5---------------|5---------------|
:5---------------|5---------------|----------------|----------------|

Estribillo
El segundo estribillo tiene los mismos acordes pero cambia un poco la
pulsacin
de las cuerdas
De sol espiga y deseo
son sus manos en mi pelo
C
G
Am7
D
E :----------------|----------------|----------------|--------2--------|
B :----5-----------|--------3-------|------1---------|----3-----3---3--|
G :------0-----0---|----0-----0---0-|----0-------0---|--2---2-----2----|
D :--5-----5-----5-|--0---0-----0---|--2-------2---2-|0----------------|
A :3---------3-----|2---------------|0---------------|-----------------|
E :----------------|----------------|----------------|-----------------|
De nieve huracn y abismos
el sitio de mi recreo
C
G
Am7
D7
E :----------------|----------------|----------------|----2-----------|
B :------5---------|------3---------|------1---------|--------2-------|
G :----0-------0---|----0-------0---|----0-------0---|--3----3--------|
D :--5-------5---5-|--0-------0---0-|--2-------2---2-|0-----0---------|
A :3---------------|2---------------|0---------------|----------------|
E :----------------|----------------|----------------|----------------|
Final
G
Em
E :----------------|----------------|----------------|----------------|
B :--------3-------|------3---------|--------3-------|------3---------|
G :----0-------0---|----0-------0---|----0-------0---|----0-------0---|
D :--4---4---4---4-|--4-------4---4-|--4---4---4---4-|--4-------4---4-|
A :----------------|----------------|----------------|----------------|
E :3---------------|3---------------|0---------------|0---------------|
E
B
G
D
A
E

C
C/B
:----------------|----------------|----------------|----------------|
:--------3-------|------3---------|--------3-------|------3---------|
:----0-------0---|----0-------0---|----0-------0---|----0-------0---|
:--5---5---5---5-|--5-------5---5-|--5---5---5---5-|--5-------5---5-|
:3---------------|3---------------|2---------------|2---------------|
:----------------|----------------|----------------|----------------|
Am7 (Sin cortar el sonido)

D/F#

E
B
G
D
A
E

:----------------|----------------|----------------|------------------|
:--------1-------|------1---0-----|--------0-1-0---|------------------|
:----0-------0---|----4-------4---|------2-------2-|-----2------------|
:--2---2---2---2-|--2-----------20|----0-----------|-4/5---0----------|
:0---------------|0---------------|--0-------------|------------------|
:----------------|----------------|2---------------|------------------|

E
B
G
D
A
E

(Sin cortar el sonido) G


:----------------|
:------0---------|
:---2---2--------|
:--5------5------|
:5---------------|
:------------3---|

#------------------------------SIMBOLOS EMPLEADOS-----------------------#
Simbolo
h
p
/
\
^
b
r
~
()
<>
{}
x
*

Significado
Hammer on
Pull off
Slide up
Slide down
Bend up
Bend
Release bend
Vibrato
Soft
Harmonic
Tremolo
Muted string
Stop string

Traduccion
Notas ligadas, siendo la primera mas grave
Notas ligadas, siendo la primera mas aguda
Arrastrar de grave a agudo
Arrastrar de agudo a grave
Estirar la cuerda hasta otra nota mas aguda
Idem pero haciendola vibrar
Pasar de cuerda estirada a posicion normal
Hacer vibrar con movimiento paralelo al mastil
Tocar mas flojo
Armonico
Subir y bajar volumen rapidamente
La cuerda no debe sonar
Parar la cuerda