Está en la página 1de 5

SOLO POR UN BESO

e -----------------------|
B ----3-3-3-3-3-3-3-6-3-5|
G ----0------------------|
D -----------------------|
A 3----------------------|
E -----------------------|
e -----------------------|
B -----------------------|
G ----2-2-2-2-2-2-2-5-2-4|
D ----0------------------|
A -----------------------|
E 3----------------------|
e 15--0--13--0--12-0--10--0---15--0--13--0--12-0--10--0
B ----------------------------------------------------G ----------------------------------------------------D 14-14--14-14-14-14--12-12---14-14--14-14-14-14--12-12
A ----------------------------------------------------E ----------------------------------------------------e 15--0--13--0--12-0--10--0|
B -------------------------|
G -------------------------|
D 14-14--14-14-14-14--12-12|
A -------------------------|
E -------------------------|
e -----0-----|
B ----1-1----|
G ---0---0---|
D --2-----2--|
A -3-------3-|
E 3---------3|
Hay una mujer!
e --------------------------7-8--8-8-8-8|
B ----------------------8-10-----5-5-5-5|
G ----------------7-9-10----------------|
D ----------7-9-10----------------------|
A ----7-8-10----------------------------|
E 8-10----------------------------------|
Que domina mis sentidos con slo tocar mi piel
e --10--8--7--5--3--1--3----5|
B ---------------------------|
G ---------------------------|
D 12--10--9--7--5--3--5--7-7-|
A ---------------------------|
E ---------------------------|

Y Cmo a m tambin!
e --------------------|
B --------------------|
G -0-0-0-0-0-0-0-3-0-2|
D --------------------|
A --------------------|
E 1-------------------|
A otro hombre esto le puede suceder.
e ----------------------------------------------------|
B ---------------------------------------0-0-0-0-0-0-0|
G ----2-2-2-2-2-2-2-5-2-4-4-4-4-4-------0-0-0-3-0-0-0-|
D ----0--------------------------------3--------------|
A ------------------------------------5---------------|
E 3----------------------------------3----------------|

C
Que slo por un beso,
A 0-2-3-3
Am
Se puede enamorar,
e --12--10--8--7--5|
B -----------------|
G -----------------|
D 13--12--10--9--7-|

Dm
Sin necesidad de hablarse
e --12--10|
B --------|
G --------|
D 13--12--|
F
Slo los labios rozarse,
e --12--10|
B --------|
G --------|
D 13--12--|
F
G
Cupido los flechar.
e --15--13--12--10--8|
B -------------------|
G -------------------|
D 16--14--13--12--10-|
C
Y slo por un beso,
A 0-2-3-0-2-3-3-0-2-3|
E ------------|
B ---------0-1|
G ------0-2---|
D -0-2-3------|
A 3-----------|
E ------------|

Am
Con ella soy feliz,
e -5--3--1---------|
B ----------5--3--1|
G -----------------|
D 7--5--3----------|
A ---------7--5--3-|

Dm
Slo por un besito,
e -----|
B -5--3|
G -----|
D -----|
A 7--5-|
F
Me llev al infinito
e -----|
B -5--3|
G -----|
D -----|
A 7--5-|
F
G
Y ni siquiera la conozco bien.
e --15--13--12--10---8--7--5----10-11-12|
B --------------------------------------|
G --------------------------------------|
D 16--14--13--12--10---9--7-----12-13-13|
Am
Un beso significa amistad, sexo y amor
F
En cualquier parte del mundo no importa la religin
Dm
F
Por un beso de su boca voy al cielo y hablo con dios
Dm
G C C C
Alcanzo las estrellas de emocin.
C
Su boca es tan sensual
e 15-15-15-15--13-13-13-13--12-12-12-12--10-10-10-10--8-8-8-8|
G
Me cautiva Y me excita no me canso de besar
e 15-15-15-15--13-13-13-13--12-12-12-12--10-10-10-10--8-8-8-8|
F
Su lengua es mi debilidad
e 15-15-15-15--13-13-13--12-12-12--10-10-10--8-8|
G
Ella sabe los truquitos dganme si hay alguien mas
e 15-15-15-15--13-13-13--12-12-12--10-10-10--8-8|
C

Que slo por un beso,


A 1-1-1-1-1-4-1-3
Am
Se puede enamorar,

G ------------------------|
D 9--7--5---3-------------|
A -------------7--5--3--2-|
E ------------------------|

D 0-0-0-0-0-3-0-2
Dm
Sin necesidad de hablarse
e -----|
B -5--3|
G -----|
D -----|
A 7--5-|
F
Slo los labios rozarse,
e -----|
B -5--3|
G -----|
D -----|
A 7--5-|
F
G
Cupido los flechar.
e --15--13--12--10--8|
B -------------------|
G -------------------|
D 16--14--13--12--10-|

e --8--7--5-----10---8--7---10---8--7----5--3--1------|
B ------------------------------------------------5--3|
G ----------------------------------------------------|
D 10--9--7----12---10--9--12---10--9----7--5--3-------|
A -----------------------------------------------7--5-|
E ----------------------------------------------------|

C
Y slo por un beso,
E 0-2-3-3-3-3-0-2-3|
Am
Con ella soy feliz,
E -----------|
B -----------|
G ------0-0-0|
D -0-2-3-----|
A 3----------|
Dm
Slo por un besito,
e -----|
B -5--3|
G -----|
D -----|
A 7--5-|
F
Me llev al infinito
e -----|
B -5--3|
G -----|
D -----|
A 7--5-|
F
G
Y ni siquiera la conozco bien.
e --15--13--12--10--8|
B -------------------|
G -------------------|
D 16--14--13--12--10-|
Am
Un beso significa amistad, sexo y amor
F
En cualquier parte del mundo no importa la religin
Dm
F
Por un beso de su boca voy al cielo y hablo con dios
Dm
G
Alcanzo las estrellas de emocin.
e -----8-8--------------3-3--7/8-7-7|
B 5-5------6-6--5/6-5-5-------------|
e -----8-8--------------3-3--10/12-10|
B 5-5------6-6--5/6-5-5--------------|
e --0-1|
B --1-1|
G --0-0|
D -2---|
A 3----|
E -----|
e -7--5--3---1------------|
B --------------5--3--1--0|

e ----7---5----7----5|
B -------------------|
G -------------------|
D 9-9--7-7--9-9--7-7-|
A -------------------|
E -------------------|
e -----p0----------------|
B -----------------------|
G -----------------------|
D ------------------2-2-2|
A 3-3-3----3-3-3---------|
E -----------------------|
e ----7---5----7----5----0-0-12-0-0-12-0---0-0-12-0|
B -------------------------------------------------|
G -------------------------------------------------|
D 9-9--7-7--9-9--7-7-------------------------------|
A -------------------------------------------------|
E -------------------------------------------------|
e 8-7--------------------------|
B ---10-8----------------------|
G -------10-9-7----------------|
D -------------10-9-7----------|
A -------------------10-8-7----|
E -------------------------10-8|

C
Hay una mujer!
A 0-2-3-0-2-3-0-2-3|
G
Que domina mis sentidos con slo tocar mi piel.
E 15-15-15-15--13-13-13-13--12-12-12-12--10-10-10-10--8-8-8-8|
C
Y cmo a m tambin.
A 0-2-3-0-2-3-0-2-3|
G
A otro hombre esto le puede suceder.
E 15-15-15-15--13-13-13-13--12-12-12-12--10-10-10-10--8-8-8-8|
C
Que slo por un beso.
Rumba, yeyeyeye, hehehehe, uhouhouho, yeheyehe.
Am
Un beso significa amistad, sexo y amor
F
En cualquier parte del mundo no importa la religin
Dm
F
Por un beso de su boca voy al cielo y hablo con dios...

QUE HAGO YO
INTRO 2da guiatarra
Em
C
G
e----------0-----------------0--------------0---------------0-------B--------0---0-------------1---1----------3---3-----------3---3-----G------0-------0---------0-------2------0-------0-------2-------2---D----2-----------------2--------------0---------------0-------------A--------------------3----------------------------------------------E--0--------------------------------3---------------2---------------INTRO 1ra guitarra
e--12---10-------------12--10-12--------------B----12---12-------------12------10-----------G------------11-12------------------11-11/12--D-----------------12----------------------12--A---------------------------------------------E----------------------------------------------

Entraste como un rayo de luz, Como un aire encantador


e--------------------------------------------------------B--------3------------------3-----------3--------------3-G------0--0---------------0--0--------0--0-----------2--2D-----4------------------4-----------4-------------0-----A---2-------------------3--------------------------------E----------------------------------3-------------2-------Liberaste con tu hechizo a mi recluso corazn
e-----------------------------------------------------B--------3----------- ---3---------3--------------3---G------0--0------------0--0-------0--0-----------2--2-D-----4---------------4----------4-------------0------A---2----------------3--------------------------------E-------------------------------3-------------2-------Tu dulzura corri por mis venas, Cre en tu intencin
e-----------------------------------------------------B--------3--3--------------------------3--3-----------G------0--0--------------------------0--0-------------D-----4----4------------------------4----4------------A---2-----------------------------3-------------------E-----------------------------------------------------No pens que fuese un engao,Ni una mentira tu amor
e-----------------------------------------------------e-----------------------------------------------------B----------3--3------------------------------3--3-----G---------0-0-------------------------------2-2-------D--------4---4-----------------------------0---0------A-----------------------------------------------------E------3---------------------------------2------------Me dices que te est llamando,Te vas sin un adis
e------------------------------------------------------B-------3---3--------------------------3--3------------G------0--0---------------------------0-0--------------D-----4----4-------------------------2---2-------------A---2------------------------------3-------------------E------------------------------------------------------S muy bien que hars en sus brazos, Dime que hago yo.
e-------------------------------------------------0----B--------------1---1------------------------3-------3--G-------------0--0-------------------------2--0------0-D-----------2-----2-----------------------0------------A------------------------------------------------------E---------3------------------------------2--------------

*******CORO********

Que hago con tu esencia si se aferra a la ma


Em
Dime que hago yo.

INTERMEDIO
1ra guitarra
e--12---10-------------12--10-12--------------B----12---12-------------12------10-----------G------------11-12------------------11-11/12--D-----------------12----------------------12--A---------------------------------------------E---------------------------------------------2da guitarra
Em
C
G
e----------0-----------------0--------------0---------------0-------B--------0---0-------------1---1----------3---3-----------3---3-----G------0-------0---------0-------2------0-------0-------2-------2---D----2-----------------2--------------0---------------0-------------A--------------------3----------------------------------------------E--0--------------------------------3---------------2----------------

Hablamos solo cuando puedes,Te abrazo al esconder


e-----------------------------------------------------B--------3--3---------------- -------3--3-------------G------0--0-------------------------0-0---------------D-----4----4-----------------------4---4--------------A---2----------------------------3--------------------E-----------------------------------------------------Que no hara para tenerte a mi lado al amanecer
e-----------------------------------------------------B----------------3---3------------------3--3----------G--------------0---0------------------2--2------------D------------4------4---------------0-----0-----------A-----------------------------------------------------E---------3-----------------------2-------------------Mis amigos dicen que te olvide,Que antes de ti no era igual
e-------------0-------------------------------0-------------B-----------3--3----3------------------------3-3---3--------G---------0-----0--------------------------0----0-----------D-------4---------4----------------------4--------4---------A-----2--------------------------------3--------------------E-----------------------------------------------------------Antes de ti mi vida no tenia sentido,Antes de ti no sabia amar
e----------------0-------------------------0--------0--------B--------------3--3---3-------------------2-2------2---2-----G------------0-----0---------------------3---3----3----------D----------4---------4------------------0--------0-----------A------------------------------------------------------------E--------3----------------------------2-----------------------

**************CORO**************
G
Em/9
Que hago con mis labios si me ruegan tus besos
C9
F#/d
Que hago con mis manos si suplican tu regreso

G
Em/9
Que hago con mis noches que hago con mis das

G
Em/9
Que hago con mis labios si me ruegan tus besos
C9
F#/d
Que hago con mis manos si suplican tu regreso

C9
F#/d
Que hago con tu esencia si se aferra a la ma
Em
Dime que hago yooooooo.

G
Em/9
Que hago con mis noches que hago con mis das

C9

F#/d

solo : guitarra 1
( acompaa al piano )

e----------0--------------------------0---------B-------3----3----------------------3---3-------G------0------0-------------------0-------0------ x 2
D-----2-------------------------0---------------A----3------------------------2-----------------E-----------------------------------------------( piano )
e---10-12--14-15----10-12----10-12----------B-12----------------------12----------------G--------------------------------------------

FUI REIK
Intro:
D
D
D
D
e-------2-2--------------2-2--------------2-2--------------2-2------B-----3-----3---3------3-----3---3-------3-----3---3-----3-----3---3G---2---------2------2---------2-------2---------2-----2---------2--D-0-----------------------------------------------------------------A-----------------0-------------------------------------------------E-------------------------------------3--------------3---------------

x2

Te conozco-------- Ricardo Arjona

e---10-12--14-15----10----15-17----15-15--10--INTRO:
B-12-----------------------------------------G--------------------------------------------E]-----------------------------------------------------------------------------------------]
A]-----------------------------------------------------------------------------------------]
D]-----------------------------------------------------------------------------------------]
G]--3-5-6-8-10-(10)---3-5-6-8-10-(6)---3-5-6-8-10------------------------------------------]
B]------------------------------------------------13/14--16-11--11-11h9-9-9-7-7-2-4-6-7-6--]
e]---------------------------------------------------------------------------------------

e------0------------0----------0--------0-------B----3---3--------3---3-------3-3------3-3------G---0-----0-----0-------0----0---0----0---0-----D--2----------0-------------2--------0----------A-3----------2-------------3--------2-----------E-----------------------------------------------aiiihaaaaiaa aiiahaiii uoohuuuooooooo

CORO
G
Em/9
Que hago con mis labios si me ruegan tus besos
C9
F#/d
Que hago con mis manos si suplican tu regreso

G
Em/9
Que hago con mis noches que hago con mis das

C9
F#/d
Que hago con tu esencia si se aferra a la ma
Em/9
Dime que hago yooooo.

Dime que hago yooooo. que hago yooooooo uooouu uuoo


e------0---------0------------------0-----------0-0-------B-----3-3-------3-3--------3--------3----------3---3------G----0---0-----0---0------0-------2-2---------2-----0-----D---2---------0----------2-------0--0--------0-------2----A--3---------2----------3----------------2--2-------------E-------------------------------2--------------------------

NOTAS
(123456)
G
| 330023
Em/9 | 3 3 0 2 2 0
C9 | 3 3 0 2 3 0
F#/d | 3 3 2 0 0 2

CUANDO LOS ANGELES LLORAN


cej 2traste
D
G
D
e--2------2-0----------3--------3--2--0---------2--------2-0-------b--3----3-----3--0-----3-----3-----------2------3-----3------3--0--g--2--2-------2--0--2--0--0-----------------2---2--2---------2--0--2
d--0----------------4--0------------------------0------------------4
a----------------------2-------------------------------------------e------------------------------------------------------------------G
D
A
Bm
e--3--------3-------------------2--5--3--2-----------0--------0--2-b--3-----3--------3--2/0--2-----3-----------5--3--2--2-----2-----3-g--0--0--------0-------------2--2--------------------2--2--------4-d--0----------------------------0--------------------2-----------4-a--2---------------------------------------------------------------e------------------------------------------------------------------e--2--------------------------------------0--2--3------------------b-----5--3--2--------0--------0-----3--------------0--3-2/0--2-----g--------------4--2--------0-----2-----0------------------------2--d-----------------------0------------------------------------------a-----------------------------------0------------------------------e--------------------3-----------2-----0---------------------------D
A
Bm
e--2--5--3--2-----------0--------0--2--2---------------------------b--3-----------5--3--2--2-----2-----3-----5--3--2--------0--------0g--2--------------------2--2--------4--------------4--2--------0---d--0--------------------2-----------4-----------------------0------a------------------------------------------------------------------e--------------------------------------------------------3---------e-----------0--2--3-------------------------------------2--3--5--2-b-----3--------------0--3--2/0--2--------------2--3--5--------3--3-g--2-----0-------------------------2--0--2--4----------------------d------------------------------------------------------------------a-----0------------------------------------------------------------e--2-----0-------------------------------------------------------2-e--2--0-------2----------------------------------------------------b--------3--2/3----------------------------------------------------g-------------4----------------------------------------------------d-------------4----------------------------------------------------a------------------------------------------------------------------e--3----------------------------------------------------------------

Intro
e|--------0-2-4-2-0-------------0--|
B|-----5------------4-2-----2-0----|
G|----6---------------2---2--------|
D|---6------------------2----------|
A|--4------------------------------|
E|---------------------------------|
e|--------2-4-5-4-2-0-0---------------0-2-4-5-7-0-4-2-0---------|
B|-----2-----------------4-2--4--0-2-4-------------------4----5-|
G|---2-------------------------------------------------------6--|
D|----------------------------------------------------------6---|
A|---------------------------------------------------------4----|
E|--------------------------------------------------------------|
Este riff lo repite al final de cada estrofa:
e|---4-----5-----4-----5-4-------|
B|-----5-----5-----5-------7-5---|
G|-------4-----4-----4---------4-|
D|-------------------------------|
A|-------------------------------|
E|-------------------------------|

Intereses relacionados