Está en la página 1de 2

6 VOLTIOS - LEJOS

Intro:
1
2
3
4
5
6

-------------------------------------------------------------------------------------------------------------------------------------------------0-0-0-0-0-0-0-0-2-2-2-0-0-0-2-2-4-4-4-4-4-4-4-4-------------------------------------------------------------------------------------------------

1
2
3
4
5
6

-------------------------------------------------------------------------------------------------------------------------------------------------7-7-7-5-5-5-4-5-----------------5-5-5-4-4-4-0-2-----------------2-2-2-2-2-2-2-2-----------------------------------------------------------------

1
2
3
4
5
6

-------------------------------------------------------------------------------------------------------------------------------------------------------------------------------------------------0-0-0-0-0-0-0-0-4-4-4-2-2-2-0-2-0---------------------------------------------------------------

Luego ze rpit lo mizmo 1 vz maz poz y sigue lo sgt poz:


D5
F#5 B5 G5 A5
E|-X-||-X-||-X-||-X-||-X-|
B|-X-||-X-||-X-||-X-||-X-|
G|-7-||-X-||-4-||-X-||-X-|
D|-7-||-4-||-4-||-5-||-7-|
A|-5-||-4-||-2-||-5-||-7-|
E|-X-||-2-||-X-||-3-||-5-|
Estoy cansado tan aburrido ya no me importas
D5
F#5
B5
ya no quiero estar aqui
G5
A5
me diste la espalda una vez ms y esta vez
D5
F#5
B5
fue suficiente para m
G5
A5
me largo no me importa tu vida me llega al pincho
D5
F#5
B5
estar lejos de aqui
G5
A5
puedes quedarte con todo tu cario y tu
D5
F#5
amor no me hacen falta la apatia me gan
B5
G5
A5
Y te dar la espalda una vez ms como tu
D5
F#5
B5
tambin lo hiciste conmigo.
G5
A5
me largo no me importa tu vida me llega al pincho
D5
F#5
B5

estar lejos de aqui


G5
A5
en mis ojos ahora solo hay odio y rencor
D5
F#5
B5
y es por tu culpa..por tu culpa
G5
A5
me largo no me importa tu vida me llega al pincho
D5
F#5
B5
estar lejos de aqui
G5
A5
en mis ojos ahora solo hay odio y rencor
D5
F#5
B5
y es por tu culpa..por tu culpa
G5
A5
Kazi terminando la kncion vien zta part poz :
E
B
G
D
A
E

|-X-|
|-X-|
|-7-|
|-7-| tokaz arriba y abajo 5 vcz
|-5-|
|-X-|

|-X-||-X-||-X-||-X-||-X-||-X-|
|-X-||-X-||-X-||-X-||-X-||-X-|
|-9-||-7-||-9-||-7-||-9-||-X-|
|-9-||-7-||-9-||-7-||-9-||-4-|
|-7-||-5-||-7-||-5-||-7-||-4-|
|-X-||-X-||-X-||-X-||-X-||-2-|

E
B
G
D
A
E

|-X-|
|-X-|
|-7-|
|-7-| tokaz arriba y abajo 5 vcz
|-5-|
|-X-|

|-X-||-X-||-X-||-X-||-X-|
|-X-||-X-||-X-||-X-||-X-|
|-9-||-7-||-9-||-7-||-9-|
|-9-||-7-||-9-||-7-||-9-|
|-7-||-5-||-7-||-5-||-7-|
|-X-||-X-||-X-||-X-||-X-|

|-X-|
|-X-|
|-X-|tokaz arriba
|-5-| y abajo 5 vcz
|-5-| zolo zta part
|-3-|

|-X-|
|-X-|
|-X-|tokaz arriba
|-7-|y abajo 5 vcz
|-7-|zolo zta part
|-5-|

E|-----------------------------------------------------------|
B|---------------------7-7-7-7-10-8-7------------------------|
G|-7-7-7-7-7-9-7-9-7-9----------------9-7----------9-7-9-7-9-|
D|-----------------------------------------9-9-9-9-----------|
A|-----------------------------------------------------------|
E|-----------------------------------------------------------|
E|--------------------|
B|-8-8-8-8-7----------|
G|-----------9-7-6-7--|
D|--------------------|
A|--------------------|
E|--------------------|