Está en la página 1de 416

Cancionero Alfabetico

CANCIONERO ALFABTICO
A

Las canciones con (*) son aquellas que tienen cifrado

A
- A mi palomita (Popular)
Cueca. Bolivia.
- Acurrcame (F. Almagro / A. Moya)
- Adelita (Popular)
Corrido. Mjico.
- Adis a la llanera
Joropo. Venezuela.
- Adis con el corazn (*)
Popurr.
- Agua del pozo (Chucho Palacios) (*)
Corrido. Mjico.
- Alfonsina y el mar (A. Ramrez / F. Luna)
Zamba. Argentina.
- Algo contigo (Chico Novarro)
Bolero.
- Alma, corazn y vida (Adrin Flores Albn) (*)
Vals. Per.
- Alma llanera (P. Elas Gutirrez) (*)
Joropo. Venezuela.
- Amalia Rosa (F.R. y Rivera) (*)
Golpe venezolano.. Venezuela.
- Amapola (J.M. Lacalle)
- Amarraditos (Margarita Durn / Pedro B. Prez)
Vals.
- Amelia
- Amigo (Ren Carsaga) (*)

file:///C|/Archivos%20de%20programa/eMule/Incoming/_...nero-guitarra-bandurria_(1)/CancioneroAlfabetico.htm (1 de 13)01/11/2008 10:43:23 p.m.

Cancionero Alfabetico

Takirari.
- Amores de Ana, Los
Estudiantina. Espaa.
- Angelitos negros (A. Eloy Blanco / M. lvarez Maciste)
- Ansiedad (J.E. "Chelique" Sarabia)
Pasaje. Venezuela
- Aquella tarde (Ernesto Lecuona)
Bolero.
- Aquellos ojos verdes (A. Utrera / Nilo Menndez)
Bolero.
- Asturianina (*)
Habanera.
- Asturias (Vctor Manuel)
- Asturias, patria querida (*)
- Aurora, La (*)
Vals. Mjico.
- Ave Mara en el Morro (H. Martins)
Bolero. Brasil.

B
- Barca, La (Roberto Cantoral)
Bolero. Mjico.
- Barca de oro, La (Abundio Martnez)
Vals. Mjico
- Barlovento Estanislao (E. Serrano)
Joropo. Venezuela.
- Barrio Brujo (Tuna de Peritos de Sevilla) (*)
Pasodoble.
- Basura (Alfredo Gil)
Bolero. Mjico.
- Bsame mucho (Consuelo Velzquez)
Bolero.
- Beso, El (A. Ortega / F. Moraleda, de La estrella de Egipto)
Pasodoble.
- Bien, carajo bien...
- Bikina, La (Rubn Fuentes Alejandro F. Roth?)
file:///C|/Archivos%20de%20programa/eMule/Incoming/_...nero-guitarra-bandurria_(1)/CancioneroAlfabetico.htm (2 de 13)01/11/2008 10:43:23 p.m.

Cancionero Alfabetico

Mjico.
- Boliviana, La (Popular)
Cueca. Bolivia.

C
- Cada vez que te veo... (*)
- Calles sin rumbo (Pombo Angulo / Muoz Molleda)
Espaa.
- Camarera de mi amor (J. Dolores Quiones)
Cuba.
- Caminemos (H. Martins)
Bolero. Brasil.
- Camino verde (C. Larrea)
Bolero. Espaa.
- Cancin con todos (A. Tejada Gmez / C. Isella)
Argentina.
- Candombe para Jos (R. Ternn)
Candombe.
- Cntame un pasodoble espaol (Tony Leblanc)
Pasodoble. Espaa
- Cantinero de Cuba (Manuel Pareja / Obregn)
Son cubano. Cuba.
- Carmentea
Joropo. Bolivia.
- Cartagenera (F. Cabanillas / Noro Vanella)
Rumba. Espaa
- Chipi chipi (Gabriel Rodrguez)
Cumbia.
- Cielito lindo (A. Varela / P.A. Fernndez) (*)
Ranchera. Mjico.
- Cintas de mi capa, Las (Villena y Villellas) (*)
Pasacalles. Espaa.
- Clavelitos (J. Valverde Sanjuan / Monreal Galindo) (*)
Vals. Espaa.
- Colombianas, Las (Jorge ez)
Colombia.
- Como llora una estrella (Antonio Carrillo)
Vals. Venezuela.
- Como pjaros en el aire (Peteco Carbajal)
Zamba. Argentina.
file:///C|/Archivos%20de%20programa/eMule/Incoming/_...nero-guitarra-bandurria_(1)/CancioneroAlfabetico.htm (3 de 13)01/11/2008 10:43:23 p.m.

Cancionero Alfabetico

- Compostelana (Mndez Vigo / Martnez Pinto) (*)


Pasacalles. Espaa.
- Contigo aprend (A. Manzanero)
Bolero. Mjico
- Contigo en la distancia (Cesar Portillo de la Luz)
Bolero.
- Corazn, corazn (Jos Alfredo Jimnez)
Vals mejicano. Mjico.
- Cu cu rru cu c, Paloma (Toms Mndez)
Son huasteco. Mjico.
- Cuando fui a Covadonga
Espaa.

D
- Despierta (Gabriel Ruz / Luna de la Fuente)
Mjico.
- Da que me quieras, El (Carlos Gardel / Alfredo Lepera)
Tango. Argentina.
- Don Gato (Popular) (*)
Espaa.
- Dos cruces (Carmelo Larrea)
Bolero. Espaa.
- Dos palomitas (Popular) (*)
Yaravi. Bolivia.
- Dos puntas, Las (Osvaldo Rocha / C. Montbrun Ocampo)
Cueca. Argentina.

E
- Ella (Jose Alfredo Jimnez)
Ranchera. Mjico.
- Elsa (Manuel Prez Ruiz, Tuna de Econmicas de Sevilla)
Bolero. Espaa.
- En tinieblas (Alfredo Snchez-Celaya del Pozo, Alf, Tuna de
Econmicas de Zaragoza)

Ronda. Espaa.
- Entre sonrisas y flores (Tuna Granadina) (Hnos. Herrera /
Antiolo / Velasco)
Espaa.
- Envidia (Hnos. Garca Segura)
Bolero. Espaa.
- Espaola (A. Castillo)
file:///C|/Archivos%20de%20programa/eMule/Incoming/_...nero-guitarra-bandurria_(1)/CancioneroAlfabetico.htm (4 de 13)01/11/2008 10:43:23 p.m.

Cancionero Alfabetico

Joropo. Venezuela.
- Espinita (Nico Jimnez)
Bolero.
- Est cantando la tuna (Jos Belmonte Trujillo, Percha, Tuna de
Econmicas de Sevilla)

Pasacalles. Espaa.
- Esta tarde vi llover (A. Manzanero)
Bolero. Mjico.
- Estrellita del Sur (F. Coronel Rueda)
Vals. Per.
- Estudiantina madrilea (Padilla / Muoz / Romn) (*)
Pasacalles. Espaa.
- Estudiantina portuguesa (Ferry / A. Rigel / F. Ramos de Castro, de La
hechicera en Palacio)

Pasacalles. Espaa.

F
- Fiesta de San Benito, La (Tradicional)
Saya. Bolivia.
- Fina estampa (Chabuca Granda / G.A. Santiago)
Vals. Per.
- Flor de ausencia
- Flor de la canela, La (Chabuca Granda)
Vals. Per.
- Flor marchita (Tuna de Peritos de Jan)
Espaa.
- Fonseca (Tuna Compostelana)
Vals. Espaa.
- Francisco Alegre (Quintero / Len /Quiroga)
Pasodoble. Espaa.

G
- Galopera, La (Mauricio Cardoso Ocampo)
Galopa. Paraguay
- Gaudeamus Igitur
- Gijn del alma (J. Daz / J. y B. Abello)
Habanera. Espaa.
- Golondrina, La (Jos Pal)
file:///C|/Archivos%20de%20programa/eMule/Incoming/_...nero-guitarra-bandurria_(1)/CancioneroAlfabetico.htm (5 de 13)01/11/2008 10:43:23 p.m.

Cancionero Alfabetico

Mjico.
- Granada (Agustn Lara)
Mjico.
- Guantanamera (Letra: Jos Mart / Joseto Fernndez Daz)
Guajira. Cuba.
- Guapa
- Guitarreando
Cueca. Argentina.

H
- Hace un ao (F. Valds Leal)
Vals. Mjico.
- Hasta siempre, Comandante (Carlos Puebla)
Bolero. Cuba.
- Hiedra, La (S. Seracini / DAquisto / B. Molar)
Bolero.
- Horas de ronda (Villena y Villellas) (*)
Pasacalles. Espaa.
- Hoy estoy aqu
Taquirari. Bolivia.

I
- Imgenes de ayer (Evaristo Ramos Muoz, Tuna de Magisterio de
Sevilla)
Vals. Espaa.
- Irresistible (Pedro Flores)
Bolero.
- Isa de Candidito
Isa. Espaa.
- Islas Canarias (J.M Tarridas)
Pasodoble. Espaa.

J
- Jams, Jams (Chucho Navarro)
Bolero. Mjico.
- Jota de la uva (Popular)
Espaa.
file:///C|/Archivos%20de%20programa/eMule/Incoming/_...nero-guitarra-bandurria_(1)/CancioneroAlfabetico.htm (6 de 13)01/11/2008 10:43:23 p.m.

Cancionero Alfabetico

L
- Lgrimas negras (Miguel Matamoros)
Bolero. Cuba.
- Lamento borincano (R. Hernndez)
Puerto Rico.
- Limea (Augusto Polo Campos)
Vals. Per.
- Lisboa antigua (J. Galhardo / A. do Vale / Ral Portela)
Fado. Portugal.
- Llorarn las estrellas (Charly, Tuna de Derecho de Alicante)
Espaa.
- Llorona, La
Mjico.
- Lo dudo (Chucho Navarro)
Bolero. Mjico.
- Luna de Espaa (Moraleda / Llovet / Lara)
Pasodoble. Espaa.
- Luna de miel (M. Theodorakis)

M
- Madrecita (Oswaldo Farrs)
Bolero
- Madrid (A. Lara)
- Magdalena (A. Amorim / A. Macedo)
Brasil
- Malaguea salerosa (P. Galindo / E. Ramrez)
Son huasteco. Mjico.
- Manoln (*)
- Manolo (Ruz de Luna)
- Maanitas, Las (Popular)
Mjico.
- Mari Carmen

file:///C|/Archivos%20de%20programa/eMule/Incoming/_...nero-guitarra-bandurria_(1)/CancioneroAlfabetico.htm (7 de 13)01/11/2008 10:43:23 p.m.

Cancionero Alfabetico

Pasacalles. Espaa.
- Mara
Espaa.
- Mara Chuchena (Licho Jimnez)
Son jarocho. Mjico.
- Mara la Portuguesa (Carlos Cano)
Copla. Espaa.
- Mariposita (Maya Andina)
Bolivia.
- Me voy pal pueblo (Mercedes Valds)
Guajira.
- Media vuelta, La (Jos Alfredo Jimnez)
Bolero. Mjico.
- Men, El (K. Zllner)
- Mi viejo San Juan (N. Estrada)
Puerto Rico.
- Mira que eres linda (Julio Brito)
Bolero.
- Mis noches sin ti (Demetrio Ortiz / M Teresa Mrquez)
Guarana. Paraguay.
- Moliendo caf (J. Manzo / H. Blanco)
- Morena de mi copla, La (Jofre Villegas / Castellanos)
Pasodoble. Espaa.
- Morenita de mi alma
Guabina. Colombia.
- Muchachita sabanera (J. V. Torrealba)
Pasaje,
- Muequita linda (Mara Grever)
Bolero.

N
- Naranjitay (Popular) (*)
Huayno. Argentina.
- No puede ser (Sorozbal, de la Zarzuela La tabernera del puerto)
Espaa
- No volver (Cortzar Espern)
Mjico
- Noche de ronda (M.T. Lara)
Bolero. Mjico.
file:///C|/Archivos%20de%20programa/eMule/Incoming/_...nero-guitarra-bandurria_(1)/CancioneroAlfabetico.htm (8 de 13)01/11/2008 10:43:23 p.m.

Cancionero Alfabetico

- Noche perfumada, La (E. Lecuona)


- Nosotros (Pedro R. Junco)
Bolero
- Nube gris (Eduardo Mrquez Talledo)
Vals. Per.

O
- diame (Rafael Otero)
Vals. Per.
- Ojos de Espaa (B. Kaempfer / Singleton / Snyder)
Bolero.
- Oropel (Jorge Villamil)
Vals. Colombia.
- La ovejita lucera
Espaa.

P
- Pa todo el ao (Jos Alfredo Jimnez)
Bolero ranchero. Mjico.
- Pjaro chog, El
Polka paraguaya. Paraguay
- P'al comisario
Cueca. Argentina.
- Palmeras, Las (G. Rojas)
Argentina.
- Parque, El (Lus Abanto Morales) (*)
Vals. Per.
- Parrandero, El (*)
Pasacalles.
- Pasacalles de garita
Pasacalles. Espaa.
- Payador, El (Domenech / Blanco)
- Perdn (Pedro Flores)
Bolero.
- Perfidia (Alfonso Esparza)
Bolero.
- Pescadores (Canizo)

file:///C|/Archivos%20de%20programa/eMule/Incoming/_...nero-guitarra-bandurria_(1)/CancioneroAlfabetico.htm (9 de 13)01/11/2008 10:43:23 p.m.

Cancionero Alfabetico

- Piel Canela (Bobby Cap)


Bolero.
- Pobre hombre, El
Tango.
- Pobre Miguel, El
- Popurr Asturiano (*)
- Popurr Canario
- Popurr Vasco
- Preso n 9, El (Hnos. Cantoral)
Son huasteco. Mjico.

Q
- Que nadie sepa mi sufrir (Angel Cabral / Enrique Dizeo) (*)
Vals. Per.
- Quireme mucho (J.M. Lacalle)
Bolero.

R
- Recuerdos (E. Joffre) (*)
Taquirari. Bolivia.
- Recuerdos de Ypacara (Demetrio Ortiz)
Guarana. Paraguay.
- Recuerdos de ti (Dr. Roque Carbajo)
Bolero.
- Relicario, El (Oliveros / Castellv / Padilla)
Pasodoble. Espaa.
- Reloj, El (Roberto Cantoral)
Bolero.
- Rey, El (Jos Alfredo Jimnez)
Ranchera. Mjico.
- Ro manso (Cholo Aguirre)
- Ronda del Firul (F. Romero / G. Fernndez Shaw / J. Serrano, de La
cancin del olvido) (*)

file:///C|/Archivos%20de%20programa/eMule/Incoming/...ero-guitarra-bandurria_(1)/CancioneroAlfabetico.htm (10 de 13)01/11/2008 10:43:23 p.m.

Cancionero Alfabetico

- Ronda del silbido (*)


- Rondalla (Alfonso Esparza Oteo) (*)
Mjico
- Rosa de Cuba

S
- Sabor a m (lvaro Carrillo)
Bolero.
- San Cayetano (J. Aragn)
Espaa.
- Santa Brbara
Espaa.
- Sapo cancionero (Alejandro Flores y Tapia)
Zamba. Argentina.
- Sebastopol (F. Collado) (*)
Pasacalles.
- Serenata huasteca
Mjico.
- Serenata tapata (Cortzar / Espern) (*)
Ranchera. Mjico.
- Sesenta granaderos (F. P. Cardozo / H. Cuadros)
Cueca. Argentina.
- Si t me dices ven (Alfredo Gil)
Bolero. Mjico.
- Si vas a Calatayud (S. Valverde / R. Zarzoso)
Espaa.
- Silencio (Rafael Hernandez)
Bolero. Puerto Rico.
- Sirena, La
- Sombras nada ms (Contursi / Lomuto)
Bolero.
- Somos (Mario Clavell)
Bolero.
- Son de la loma
Cuba.
- Son mejicano (Popular)
Mjico.

file:///C|/Archivos%20de%20programa/eMule/Incoming/...ero-guitarra-bandurria_(1)/CancioneroAlfabetico.htm (11 de 13)01/11/2008 10:43:23 p.m.

Cancionero Alfabetico

T
- Toro y la Luna, El
Espaa.
- Tres veces guapa (Laredo) (*)
Pasodoble. Espaa.
- T meas (*)
- Tuna lleg, La
- Tunante lagunero, El (Elfidio Alonso)
Pasacalles. Espaa.
- Tus ojos

U
- Una aventura ms (Kinleinder / Stevens)
Bolero.

V
- Vagabundo, El (Vctor Simn / Alfredo Gil) (*)
Bolero.
- Vagabundo por Santa Cruz (Jos Belmonte Trujillo, Percha, Tuna de
Econmicas de Sevilla)

Pasacalles. Espaa.
- Vampiro, El (P. Lormiga)
- Vereda tropical (Gonzalo Curiel)
Bolero.
- Viajera, La (Garca Morcillo)
Espaa.
- Viajerita, La (Atahualpa Yupanqui)
Zamba. Argentina.
- Violetas imperiales (J.M. de Arozamena / Francis Lpez)

Y
- Y viva Espaa (L. Caerts / L. Rozenstraten / M. Degmez) (*)

file:///C|/Archivos%20de%20programa/eMule/Incoming/...ero-guitarra-bandurria_(1)/CancioneroAlfabetico.htm (12 de 13)01/11/2008 10:43:23 p.m.

Cancionero Alfabetico

Pasodoble. Espaa.
- Yo no me caso, compadre (Sebastin Curiel) Dedicada a mi novia...
Corrido. Mjico.
- Yo te dir (E. Llovet / J. Halpern, de Los ltimos de Filipinas)
Habanera. Espaa.
- Yo vendo unos ojos negros (Tradicional)
Tonada. Chile.

Z
- Zamba de la esperanza (Lus H. Morales)
Zamba. Argentina.

Dado que seguramente habr un montn de errores tanto en los autores como en los
ritmos o pases, agradecer cualquier correccin o sugerencia al respecto. Para ello
podis escribirme a:

daniel@itma.etsiig.uniovi.es

file:///C|/Archivos%20de%20programa/eMule/Incoming/...ero-guitarra-bandurria_(1)/CancioneroAlfabetico.htm (13 de 13)01/11/2008 10:43:23 p.m.

Acurrcame

ACURRCAME

(F. Almagro / A. Moya)

Am
E7
Am
Esta noche, mueca divina,
E7
con mi mandolina te vengo a cantar.
Sal prontito, carita de cielo,
Dm
E7
Am
que tenga el consuelo de verte asomar.

E7
Am
Son mis notas lamentos del alma,
A7
Dm
suspiros que vuelan hacia tu balcn.
Am
No consientas, carita morena,
E7
A
que muera de pena y desilusin.

A E7 A
Bbdim
E7
Acurrcame, como a un nio que tiembla de fro,
Bm E7
Bm
E7
A
acurrcame, en un sueo de eterna pasin.
A E7 A
A7
Dm
Acurrcame, que no puedo sufrir tus desvos,
Am
que tu amor ha de ser solo mo,
E7
Am
por favor dame tu corazn.

Am
E7
Am
Otra vez a rondarte he venido,
E7
de amores transido, soando al cantar.
En tus labios quisiera algn da,
Dm
E7
Am
hallar, vida ma, la felicidad.

file:///C|/Archivos%20de%20programa/eMule/Incoming/_cancionero-guitarra-bandurria_(1)/Acurrucame.html (1 de 2)01/11/2008 10:44:34 p.m.

Acurrcame

Am
E7
Am
Son mis notas lamentos del alma,
A7
Dm
suspiros que vuelan hacia tu balcn,
Am
no consientas, carita morena,
E7
A
que muera de pena y desilusin.

Acurrcame...

file:///C|/Archivos%20de%20programa/eMule/Incoming/_cancionero-guitarra-bandurria_(1)/Acurrucame.html (2 de 2)01/11/2008 10:44:34 p.m.

Adelita

ADELITA

(Popular)

D
A7
D
En lo alto de la abrupta serrana,
G
A7
acampado se encontraba el regimiento,
Em
A7
y una joven que valiente los segua,
Em
A7
D
locamente enamorada de un sargento.

D
A7
D
Popular entre la tropa era Adelita,
G
A7
la mujer que el sargento idolatraba,
Em
A7
porque a ms de ser valiente era bonita
E7
G A7
y hasta el mismo coronel la respetaba,

Gm
Dm
Gm
A7
Y se oa que deca aquel que tanto la quera:

Si
la
si
si

D
A7
D / D7
Adelita se fuera con otro,
G
A7
seguira por tierra y por mar,
Em
A7
D
B7
por mar en un buque de guerra,
Em
A7
D
por tierra en un tren militar.

D
A7
D / D7
Y si acaso yo muero en la guerra,
G
A7
y si en la sierra me van a sepultar,
Em
A7
D
B7
Adelita por Dios te lo ruego,
Em
A7
D
que por m no vayas a llorar.

file:///C|/Archivos%20de%20programa/eMule/Incoming/_cancionero-guitarra-bandurria_(1)/Adelita.html (1 de 2)01/11/2008 10:44:35 p.m.

Adelita

A7
D
Si Adelita quisiera ser mi esposa,
A7
D
si Adelita ya fuera mi mujer,
D7
G
le comprara un vestido de seda,
D
A7
D
para llevarla a bailar al cuartel.

file:///C|/Archivos%20de%20programa/eMule/Incoming/_cancionero-guitarra-bandurria_(1)/Adelita.html (2 de 2)01/11/2008 10:44:35 p.m.

Adis con el corazn

ADIS CON EL CORAZN

(Popurr)

D
Ebd
A7
Adis con el corazn,
Em
A7
D
que con el alma no puedo.
D
Ebd
A7
Al despedirme de ti,
Em
A7
D
al despedirme me muero.

A7
D
T sers el bien de mi vida,
A7
D
t sers el bien de mi alma,
A7
D
t sers el pjaro pinto
B7
Em
A7
D
que alegre canta en la maana.

D
Al amanecer se marcha el tren,
A7
D
se va mi amor, yo me voy con l. (BIS)

D Ebd
A7
No hay quien pueda, no hay quien pueda,
Em A7
D
con la gente marinera.
Ebd
A7 Em
A7
Marinera, pescadora, no hay quien pueda,
D
por ahora.

D
Ebd
A7
Si te quieres casar con las chicas de aqu,
Em
A7
D
tienes que ir a buscar capital a Madrid,
Ebd
A7
capital a Madrid, capital a Madrid,
Em
A7
D
si te quieres casar con las chicas de aqu.

Adis con el corazn ...

CIFRADOS

Adis con el corazn, que con el alma no puedo. Al despedirme de ti, al despedirme me
|-0------0------0-0-------0--2--0--4--0--0--------0------0----0--0-----0---2--0-4--0-0-file:///C|/Archivos%20de%20programa/eMule/Incoming/...ionero-guitarra-bandurria_(1)/AdiosConElCorazon.htm (1 de 3)01/11/2008 10:44:38 p.m.

Adis con el corazn

|----2------2-------3-----------------------3--2------2----2-------3-------------------|---------------------------------------------------------------------------------------|
|
|----------------------------------0-------------------------------------------0-------|-2------2------2-2-0-----2--3--2-----3--2--0-----2------2----2--2--0--2---3--2----3-2-|----3------3----------------------------------3------3---3-----------------------------

muero. T sers el bien de mi vida, t sers el bien de mi alma. Tu sers el pjaro


|---------0--2-4--4---4----5--4--2-0---0--2-4--4---4----5--4-2--0---0--2-4--4---4-54---|--3-2---------------------------------------------------------------------------------|---------------------------------------------------------------------------------------|
|
|--------------0--0---0----2--0-------------0--0---0----2--0-------------0--0---0-20---|--0------2--3-------------------3-2---2--3------------------3--2---2-3----------------|----3----------------------------------------------------------------------------------

pinto que_alegre canta en la maana.


|--2--0----2--4--2--0----0---2--0-------|----------------------3----------3-2---|---------------------------------------|
|
|-------------0-------------------------|--3--2----3-----3--2--0-2---3--2-0-----|-----------------------------------3----

Al amanecer se marcha_el tren, se va mi_amor yo me voy con l. (BIS)


|----------0---0--2----2-----0----0--2---2--0---4--2--0-----------|-2--2-2-3------------------------------------------------3--2----|-----------------------------------------------------------------|
|
|-----------------------------------------------0-----------------|--------0-2---2--3----3-----2----2--3---3--2------3--2---0-------|-3--3-3-----------------------------------------------------3-----

No_hay quien pueda_a, no_hay quien pueda_a, con la gente_e marine_era, marine_era,
|---0------5----2--2-0----2------4----0--0-----0---4--0--0----0-2---------0-5-2-20-----|-------------------------------------------3--------------3------3-3-

file:///C|/Archivos%20de%20programa/eMule/Incoming/...ionero-guitarra-bandurria_(1)/AdiosConElCorazon.htm (2 de 3)01/11/2008 10:44:38 p.m.

Adis con el corazn

2-----------------|---------------------------------------------------------------------------------------|
|
|----------2---------------------0-----------------0-----------------------2-----------|---2-----------3--3-2----3-----------2--2--0--2------2--2-0--2-3-0-0-----2---3-32-----|--------------------------------------------------------------------3------------------

pescado_ora, no_hay quien pueda_a por ahora.


|--2--4-0-0------0------4----0--0----0--2-------|-----------3---------------------3-------3-2---|-----------------------------------------------|
|
|-----0-----------------0-----------------------|--3----2-2-0----2-----------2--2-0--2--3-0-----|-------------------------------------------3----

Si te quieres casar con las chicas de_aqu, tienes que_ir a buscar capital a Madrid,
|---------0--2---0-----2---0------2----0--------------------0---------0-----0----------|--2--3------------2------------2----------3---0--2-----3------3--0-----3-0-----3-2----|---------------------------------------------------------------------------------------|
|
|---------------------------------------------------------------------------------------|-----0---2--3---2-----3---2------3----2---0------------0---2--0------2-0----2-0-------|--3---------------3------------3--------------2--3---------------2-------2-------3-----

capital a Madrid, capital a Madrid, si te quieres casar con las chicas de_aqu.
|------0--2--0-------2-0----2--0-----------------0---------0----------0------------|--2-3----------2--------2--------3----0--2---3------3-0-------3----0------3---2---|----------------------------------------------------------------------------------|
|
|----------------------------------------------------------------------------------|----0-2--3--2-------3-2----3--2--0-----------0--2---0-----2---0------2----0-------|--3------------3--------3-------------2--3------------2------------2----------3----

file:///C|/Archivos%20de%20programa/eMule/Incoming/...ionero-guitarra-bandurria_(1)/AdiosConElCorazon.htm (3 de 3)01/11/2008 10:44:38 p.m.

Adis a la llanera

ADIS A LA LLANERA

Dm Gm A7 ...... A7
Dm
Ah ah ah, ah ah ah, la la la
Dm
Gm
Por si acaso ya no vuelvo
A7
Dm
me despido a la llanera,
Gm
A7
Venezuela, Venezuela
Dm
despedirme yo quisiera,
Gm
A7
pero no encuentro manera.

Dm
Gm
Si yo pudiera tener alas para volar
A7
Dm
Gm
A7
como tengo un corazn que sabe muy bien amar.
Dm
Cuntas veces yo quisiera
Gm
que estuvieras junto a mi,
A7
Dm
pero no encuentro manera
Gm
A7
de acercarme un poco a ti.

D
G
Maana cuando partamos
A7
D / G / A7 / D
un recuerdo te dejar,
D
G
mis lgrimas en tus manitas
A7
D
y de ti qu me llevar.

Por si acaso....

file:///C|/Archivos%20de%20programa/eMule/Incoming/_cancionero-guitarra-bandurria_(1)/AdiosLlanera.html (1 de 2)01/11/2008 10:44:39 p.m.

Adis a la llanera

Ah ah ah, ah ah ah, ah ah ah, la la la

file:///C|/Archivos%20de%20programa/eMule/Incoming/_cancionero-guitarra-bandurria_(1)/AdiosLlanera.html (2 de 2)01/11/2008 10:44:39 p.m.

Agua del pozo

AGUA DEL POZO

(Chucho Palacios)

D
A7
D
Aquellos tiempos que viviste junto a m,
Ebd
A7
aquellos tiempos que tu amor fue para m,
Em
A7
que en tu inocencia me confi,
Em
A7
D
y a tus encantos me rend.

D
A7
D
Mas si es sabido que al fin te iba yo a perder,
D7
G
te hubiera dado yo a beber
G
Gm
D
B7
agua del pozo de la Virgen Mejicana,
Em
A7
D
pa que aprendieras t a querer.

E7
A
Y ahora te miro con desprecio sin igual
E7
A
caray, caray,
E7
A
y si te acercas a mi lado a coquetear,
E7
A A7
ya no es iguaaal.

CIFRADOS
Aquellos tiempos que viviste junto_a m, aquellos tiempos que tu_amor fue para m,
|-------0---2---0----2--0-2--5--4---0------------0---2---0----2---0--2---5---40--------|----2----------------------------------2-----2----------------------------------3-----|-3---------------------------------------3--------------------------------------------|
|
|----------------------------2--0----------------------------------------2--0----------|-------2---3---2----3--2-3---------2------------2---3---2----3---2--3---------2-0-----|----3----------------------------------3----3-----------------------------------------|-3---------------------------------------3---------------------------------------------

que_en tu_inocencia me confi, y_a tus encantos me rend.


|---------------2--5---4--0--3--------------2--5---4--0------|----------0--3-----------------------0--3---------------2---file:///C|/Archivos%20de%20programa/eMule/Incoming/_cancionero-guitarra-bandurria_(1)/AguaDelPozo.htm (1 de 3)01/11/2008 10:44:39 p.m.

Agua del pozo

|----2----------------------------2--------------------------|
|
|------------------2---0-----------------------2---0---------|-------------0-3---------2--0-----------0--3---------2------|----------2--------------------------2------------------3---|----3----------------------------3---------------------------

Mas si_es sabido que_al fin te_iba yo_a perder, te_hubiera dado yo_a beber, agua del
|------------0-2-0----2----0----2--5---4---0---------------0--5-3---0---1-2---5--4-5---|-------2-------------------------------------2--------2-------------------------------|--3-----------------------------------------------3-----------------------------------|
|
|----------------------------------2---0----------------------20-----------------------|------------2-3-2----3----2----3----------2---------------2--------3---2-3---3--2-3---|-------3-------------------------------------3--------3-------------------------------|--3-----------------------------------------------3------------------------------------

pozo de la Virgen Mejicana, pa que_aprendieras tu_a querer.


|--7-5--4--5--7--5---4-5-9-0---0--------0--2--5----4----7-5--4-2-0----------|-----------------------------------4------------------------------3-2-0----|------------------------------------------------------------------------3--|
|
|--0----------0-------------------------0-----2----0------------------------|----3--2--3-----3---2-0-0-----2----0---2--3------------3-2-----------------|--------------------------3-------------------------------------------------

Y_ahora me miras con desprecio sin igual, caray, caray, y si te_acercas a mi lado_a
|---5---5--4--5-4---2---0-----0--------------0-------------------2--5--4--2--0----0----|---------------------------4-----4--2--0------4----0-2---0--4-----------------4-------|---------------------------------------------------------------------------------------|
|
|---2---2--0--20-----------------------------------------------------------------------|-------------------4---2---0-2---0----------2-0-----------------0--0--2-0-------------|------------------------------------3--2-----------1-2------0---------------3--2-3----|--------------------------------------------------------2------------------------------

file:///C|/Archivos%20de%20programa/eMule/Incoming/_cancionero-guitarra-bandurria_(1)/AguaDelPozo.htm (2 de 3)01/11/2008 10:44:39 p.m.

Agua del pozo

coquetear, ya no_es igua___al.


|-------------0-------2--0-2-4---|--4--2--0--------4--------------|--------------------------------|
|
|------------------------0-------|-------------2---0---4----4-3---|--2--0--------------------------|--------3------------------------

file:///C|/Archivos%20de%20programa/eMule/Incoming/_cancionero-guitarra-bandurria_(1)/AguaDelPozo.htm (3 de 3)01/11/2008 10:44:39 p.m.

Alfonsina y el mar

ALFONSINA Y EL MAR

(A. Ramrez / F. Luna)

Gm
A
Dm
Por la blanda arena que lame el mar,
E7
Am
Su pequea huella no vuelve ms.
F
G7
C
Un sendero solo de pena y silencio
Dm
Am
E7 A7
lleg hasta el agua profunda.
Dm
G7
C
Un sendero solo de penas mudas
Dm Am
E7 Am
lleg hasta la espuma.

Gm
A7
Dm
Sabe Dios que angustia te acompa
E7
Am
que dolores viejos call tu voz,
F
G7
C
para recostarte arrullada en el canto
Dm
Am
E7 Am
de las caracolas marinas.
Dm
G7
C
La cancin que canta en el fondo oscuro
Dm Am
E7 Am
del mar, la caracola.

Dm7
G7
C
Te vas Alfonsina con tu soledad,
Gm
A7
Dm
Qu poemas nuevos fuiste a buscar?
Dm
E7
Am
una voz antigua de viento y de sal
E7
Gm A7
te requiebra el alma y la est llamando,
Dm
E7
Am
y te vas hacia all como en sueos,
F
B7
E7
Am
dormida, Alfonsina, vestida de mar.

file:///C|/Archivos%20de%20programa/eMule/Incoming/_cancionero-guitarra-bandurria_(1)/Alfonsina.htm (1 de 2)01/11/2008 10:44:39 p.m.

Alfonsina y el mar

Gm
A
Dm
Cinco sirenitas te llevarn
E7
Am
por caminos de algas y de coral,
F
G7
C
y fosforescentes caballos marinos
Dm
Am
E7 A7
harn una ronda a tu lado;
Dm
G7
y los habitantes del agua
C
Dm Am
E7 Am
van a jugar pronto a tu lado.

Gm
A7
Dm
Bjame la lmpara un poco ms,
E7
Am
djame que duerma, nodriza en paz,
F
G7
C
y si llama l no le digas que estoy,
Dm
Am
E7 Am
dile que Alfonsina no vuelve,
Dm
G7
C
Dm
y si llama l no le digas nunca que estoy,
Am
E7 Am
di que me he ido.

Te vas Alfonsina...

file:///C|/Archivos%20de%20programa/eMule/Incoming/_cancionero-guitarra-bandurria_(1)/Alfonsina.htm (2 de 2)01/11/2008 10:44:39 p.m.

Algo contigo

ALGO

CONTIGO

()

D
F#
Hace falta que te diga que me muero
Bm Bm / A#m / Am / D7
por tener algo contigo.
G
B7
Es que no te has dado cuenta de lo mucho
Em
que me cuesta ser tu amigo.
G
Gm
Ya no puedo acercarme a tu boca
D
B7
sin desertela de una manera loca.
Em
Necesito controlar tu vida,
A7
saber quien te besa, quien te abriga.

D
F#
Hace falta que te diga que me muero
Bm Bm / A#m / Am / D7
por tener algo contigo.
G
B7
Es que no te has dado cuenta de lo mucho
Em
que me cuesta ser tu amigo.

G
Gm
Ya me quedan muy pocos caminos
D
B7
y aunque pueda parecerte un desatino
Em
A7
D
no quisiera yo morirme sin tener algo contigo.

G
Gm
Ya no puedo continuar espiando
D
B7
tus llegadas, da y noche adivinando.
Em
A7
Ya no se con que inocente excusa pasar por tu casa.

file:///C|/Archivos%20de%20programa/eMule/Incoming/_cancionero-guitarra-bandurria_(1)/AlgoCont.html (1 de 2)01/11/2008 10:44:40 p.m.

Algo contigo

G
Gm
Ya me quedan muy pocos caminos
D
B7
y aunque pueda parecerte un desatino
Em
A7
D
G / G# / A
no quisiera yo morirme sin tener algo contigo,
D
G / G# / A
D
algo contigo,
algo contigo...

file:///C|/Archivos%20de%20programa/eMule/Incoming/_cancionero-guitarra-bandurria_(1)/AlgoCont.html (2 de 2)01/11/2008 10:44:40 p.m.

Alma, corazn y vida

ALMA, CORAZON Y VIDA

(Adrin Flores Albn)

Am A7
Recuerdo aquella vez
Dm
que yo te conoc
Am
recuerdo aquella tarde
E7
Am
pero no me acuerdo ni como te vi.

Am A7
Pero si te dir
Dm
que yo me enamor
Am
de esos tus lindos ojos
E7
Am
y tus labios rojos que no olvidar.

Am
Oye esta cancin que lleva
G
alma, corazn y vida
F
E7
estas tres cositas nada ms te doy.

Am
Porque no tengo fortuna
G
estas tres cosas te ofrezco,
F
E7
alma, corazn y vida, y nada ms.

Dm
Alma para conquistarte
Am
corazn para quererte ms
E7
Am A7
y vida para vivirla junto a ti.

Dm
Alma para conquistarte
Am
corazn para quererte ms
E7
Am
y vida para vivirla junto a ti.

Introduccin:

Am, G, F, E7, Dm, Am, E7, Am

file:///C|/Archivos%20de%20programa/eMule/Incoming/_cancionero-guitarra-bandurria_(1)/Alma.htm (1 de 3)01/11/2008 10:44:40 p.m.

Alma, corazn y vida

CIFRADOS
|-0---0---0-3-2-0-------------2-0--------------0--------------------------------------|---0---0---------3-----3---3-----3-1-----1---1---3-1-0-------------1-0------------0--|---------------------3---3-------------1---1-------------3-3-3-3-3-----3-1-1-1-1-1--3|---------------------------------------------------------------------------------------

|-----------------------------0--|-------------------------0---0--|-1-0--0-0-0-0--3-1-0---1-----1--|---------------------3-------3---

Recuerdo_aquella vez, que yo te conoc, recuerdo_aquella tarde pero no me_acuerdo ni


|-------------------------------------0-----------------------------------------------|-------------------0-----0--1--3--1-0-------0----1---3--1--0-------0--1--0-----------|----0----1---0----------------------------3-------------------1--3-----------3---0-1-|--3------------3----------------------------------------------------------------------

cmo te vi. Pero si te dir que yo me_enamor de_esos tus lindos ojos y tus labios
|--------------------------------------------0----------------------------------------|----0----------------------0---0--1---3--1-3--------0---1---3--1--0-------0---10-----|--3----3--1-----0--1--0--------------------------3------------------1-3--------------|--------------3---------3-------------------------------------------------------------

rojos que no_olvidar.


|-------------------------|-----------------0-------|--3-0----1---3-----3-1---|--------------------------

Oye_esta cancin que lleva, alma, corazn y vida, estas tres cositas nada ms te doy.
|-0--0-------------------00-----------------------------------------------------------|--------0--0--------0--------3--3-------------3-3--1--1----------------1-0--3---1-0--|--------------1---------------------3-3-0--3---------------1---1--1------------------|----------------------------------------------------------------3---------------------

Porque no tengo fortuna, estas tres cosas te ofrezco, alma, corazn y vida_y nada
file:///C|/Archivos%20de%20programa/eMule/Incoming/_cancionero-guitarra-bandurria_(1)/Alma.htm (2 de 3)01/11/2008 10:44:40 p.m.

Alma, corazn y vida

ms.
|--0---0--------------00--------------------------------------------------------------|---------0--0-----0-------3--3-------------------3--3--1--1-------------1--0---3-1-0-|---------------1------------------3---3-0---3-----------------1-1--1-----------------|-----------------------------------------------------------------3--------------------

Alma para conquistarte, corazn para quererte y vida para vivirla junto_a ti_i. (BIS)
|-------------------0--0-------------------0--0-0--------------------0---2---0-1---|----------------1-----------------------0---------4-4--2-4--2-4--4-----------(1vez)
|-3--3--3-3--3-------------1-1-1---1-1---------------------------------------------|-----------------------------------------------------------------------------------

file:///C|/Archivos%20de%20programa/eMule/Incoming/_cancionero-guitarra-bandurria_(1)/Alma.htm (3 de 3)01/11/2008 10:44:40 p.m.

Alma llanera

ALMA LLANERA

(P. Elas Gutirrez)

A
B7
E7 / E / D# / E
Yo nac en esta ribera del Arauca vibrador
E7 / E / D# / D
E7 / E / D# / D
soy hermano de la espuma,
de la garza, de la rosa,
E7
Bm7
C#m7 D
soy hermano de la espuma, de la garza, de la rosa
E7
A / D / E7 / A / D / E7
y del Sol, y del Sol.

A
B7
E7 / E / D# / D
Me arrull la viva diana de la brisa en el palmar
E7 / E / D# / D
E7 / E / D# / D
y por eso tengo el alma
como el alma primorosa
E7
Bm7
C#m7 D
y por eso tengo el alma como el alma primorosa,
E7
A
del cristal, del cristal.

A
D
E7
A
Canto, sueo, ro, lloro,
E7
con claveles de pasin
A
con claveles de pasin,
D
E7
A
amo mi Venezuela, patria querida del Libertador.

E7
Para ornar las rubias crines
A
al potro ms corredor,
E7
A
yo nac en esta ribera del Arauca vibrador,
E7
A / A7 / D / E7
soy hermano de la espuma, de la garza, de la rosa
A
y del Sol.

INTRODUCCIN: Am, E7 (Varias veces), Am, G7, C, Dm, Am, E7, A, D, E7, A, D, E7, A
(Cascabel) E7, Am, E7, A, D, E7, A, D, E7

CIFRADOS
|--------------------------------0-3-2-0---2-0---0-----0-3-2-0---2-0---0---0-3-2-0--0-|---------0-1-0----------0-1-0-----------4-----4---0-----------4-----4------------3---|---0-1-3----------0-13---------------------------------------------------------------file:///C|/Archivos%20de%20programa/eMule/Incoming/_cancionero-guitarra-bandurria_(1)/AlmaLlanera.htm (1 de 3)01/11/2008 10:44:40 p.m.

Alma llanera

|-3-------------3----------------------------------------------------------------------

|------------------------0---------------------0-----------------------------0--------|-3-1-1-0----------0-1-0---0-1---0-------0---2----0-4-2-0--0-4-2-0------0---2---0-4-20|------------0-1-3-------------3-------2---3--------------------------2--3------------|----------3-------------------------3-----------------------------3-------------------

|---------------3-3-3-3-2-0-----0-2-2-0---0---3-3-3-3-2-0-----0-2-2-0---0--|-0-4-2-0---0---------------4-4---------4-----------------4-4---------4----|--------------------------------------------------------------------------|---------------------------------------------------------------------------

|-----------0---------------------------------0------------------------0--4--(*) |-----0---2------0-4-2-0--0-4-2-0-------0---2----0-4-2-0--0-4-2-0---0--------|---2---3-----------------------------2---3----------------------------------|-3---------------------------------3-----------------------------------------

Yo nac_en una ribera del Arauca vibrador,


soy hermano de
la_espuma,
|--------0-----2--0-4-2--0----2--0----------------0-2-0-4-2-0----------0-0--2--0------|--0--0------4--------------4-------4--2-4--0-2-4-------------4-2---2---------------40|---------------------------------------------------------------------------------------

de la garza de la rosa,
soy hermano de
la_espuma,
|-----0-2-0-4-2-0-----------0--0--2--0----------0-2-0-4-2-0------------0-0--2--0------|-2-4-------------4-2-2--2--------------4-0-2-4-------------4-2-2---2---------------40|---------------------------------------------------------------------------------------

de la garza de la rosa y del sol (del sol), y del sol.


Me_arrull ... (igual)
|---------------------------------------2----------------|-0--0--2-----------0----------0----4--------------------- (*)
|----------3--3--3----2-3--0-----------------3--0--------|---------------------------------------------------3-----

Amo, lloro, canto, sueo, con claveles de pasin, con claveles de pasin. Para_ornar
|---------------------0--0---4----0-2-----0----------2-----0--------------------------|-0-0----2-2---4--4-------------------4-----2-------------4---2---4--0-------0--0--2--|-----------------------------------------------3---------------------2----------------

file:///C|/Archivos%20de%20programa/eMule/Incoming/_cancionero-guitarra-bandurria_(1)/AlmaLlanera.htm (2 de 3)01/11/2008 10:44:40 p.m.

Alma llanera

las rubias crines, para_ornar las rubias crines del potro de mi_amador. Yo nac_en una
|-------------0-0----4--0---2------0--------------------------------------------------|-2---4-4-----------------------4-----2-----4-0---0---2--0----------------0--0--0--0--|-----------------------------------------------------------3---2--0-----------------3|-------------------------------------------------------------------3------------------

ribera del Arauca vibrador, soy hermano de la_espuma de la garza_y de las rosas y del
|----------------------------------------------------------------------------0-4-2----|----0-------------------------0---0--0-0----------0--------------0---2--4----------0-|--2---0--3--3-3--3--2--0------------------3---2-----0--0--2-3------------------------|------------------------3-------------------------------------------------------------

sol, del sol, del sol.


|--0----2---4----5---7----|-------------------------|--------------------------

file:///C|/Archivos%20de%20programa/eMule/Incoming/_cancionero-guitarra-bandurria_(1)/AlmaLlanera.htm (3 de 3)01/11/2008 10:44:40 p.m.

Amalia Rosa

AMALIA ROSA

D
De Maracaibo salieron
G
dos palomitas volando,
A7
a la Guaira volvern,
D
a la Guaira volvern
G
A7
D
(2 G / A7 / D / G / A7 / D)
pero a Maracaibo cuando. (BIS)

G
Mara me dio una cinta
D7
y Rosa me la quit,
Amalia pele con ella
G
porque Juana, porque Juana se enoj. (BIS)
A7
Ya se juntaron las cuatro
D
y eso es lo que quiero yo.

Amalia, Amalia, Amalia,


G
Amalia, Amalia Rosa
A7
esa es la que yo me llevo,
D
esa es la que yo me llevo
G
A7
D
por ser la ms buena moza. (BIS)

D
Toma nia este pual,
G
clvamelo en un costao
A7
y vers mi corazn,
D
y vers mi corazn
G
A7
D
junto al tuyo retratao.

Mara me dio una cinta ...

CIFRADOS
file:///C|/Archivos%20de%20programa/eMule/Incoming/_cancionero-guitarra-bandurria_(1)/AmaliaRosa.htm (1 de 3)01/11/2008 10:44:40 p.m.

Amalia Rosa

|--0-0-0-0---2-2-2-2---4-4-4-4---0-2-4-5-4-2-5--0-0-0---2-0-------2-2-4-4-5---00-|--2-2-2-2---3-3-3-3---5-5-5-5------------------------3-----3-2--- BIS -3-3-5-5-2---22-|--3-3-3-3---0-0-0-0--------------------------------------------------------------|


|
|--0-0-0-0---2-2-2-2---0-0-0-0-------0-2-0----------------------------00---------|--2-2-2-2---3-3-3-3---0-0-0-0---2-3-------3-2--2-2-2-0-3-2-0----- BIS -3-3-2-2-2---22-|--3-3-3-3---0-0-0-0---2-2-2-2--------------------------------3---5-5-----3---33-|----------------------3-3-3-3-----------------------------------------------------

|-2-2-2-4-4-4--5--|-3-3-3-5-5-5--2--|-----------------|
|
|-------0-0-0-----|-3-3-3-2-2-2--2--|-5-5-5--------3--|------------------

De Maracaibo salieron dos palomitas volando a la Guaira volvern, a la Guaira volvern


|--0--0-0-0-----0-0--0---2---2-2-2-2---2-2--2-4--4--4---4--4--4-4---0--2--4---5--4--2-5|--2--2-2-2-----2-2--2---3---3-3-3-3---3-3--3-5--5--5---5--5--5-5----------------------|--3--3-3-3-----3-3--3---0---0-0-0-0---0-0--0------------------------------------------|
|
| De Maracaibo salieron dos palomitas volando a la Guaira volvern, a la Guaira volvern
|--0--0-0-0-----0-0--0---2---2-2-2-2---2-2--2-0--0--0---0--0--0-0---------0---2-0------|--2--2-2-2-----2-2--2---3---3-3-3-3---3-3--3-0--0--0---0--0--0-0---2--3------------32-|--3--3-3-3-----3-3--3---0---0-0-0-0---0-0--0-2--2--2---2--2--22------------------------

pero_a Maracaibo cuando. (BIS)


|--0--0---0---2--0----------|-----------3-------3---2---|---------------------------|
|
| pero_a Maracaibo cuando. (BIS)
|---------------------------|--2--2---2-0-3--2--0-------|-----------------------3----

Mara me dio una cinta ...

(Sin pas)

file:///C|/Archivos%20de%20programa/eMule/Incoming/_cancionero-guitarra-bandurria_(1)/AmaliaRosa.htm (2 de 3)01/11/2008 10:44:40 p.m.

Amalia Rosa

Amalia_Amalia_Amalia_Amalia_Amalia Rosa_esa_es la que yo me llevo, esa_es la que yo me


|-0-0------0------0------0--0---5-5---5--2---2----2---2---7-5---5-4--4--4----4---4--4-4|------2------2-----2------------------------------------------------------------------|---------------------------------------------------------------------------------------|
|
| Amalia_Amalia_Amalia_Amalia_Amalia Rosa_esa_es la que yo me llevo, esa_es la que yo me
|--------------------------------------------------------0--0---0-------------------0-0|-2-2------2------2-------------3-3---3--0---0----0---0-----------0--0--0----0--0------|------3------3------3---3-3------------------------------------------------------------

llevo por ser la ms buena moza.


|--5-0--0---0---0------2--0---------2-2-4-4-5---0-0---2-2-2-4-4-4--5--|------------------3---------3-2---- BIS -3-3-2-2-2---2-2---3-3-3-5-5-5--2--|---------------------------------------------------------------------|
|
|llevo por ser la ms buena moza.
|--0-------------------------------------0-0-----------------0-0-0-----|----2--2---2---2--0---3--2---0------ BIS -3-3-2-2-2---2-2---3-3-3-2-2-2--2--|-------------------------------3----5-5-----3---3-3---5-5-5--------3--|-----------------------------------------------------------------------

... por ser la ms buena moooooooooooza


|------0---0---0------2--0------0---4---5--2-2-4-4-5--|-----------------3---------2-3-----------------------|-----------------------------------------------------|
|
| ... por ser la ms buena moooooooooooza
|------------------------------------------0-0--------|------2---2---2--0---3--2----0-2-0-2-0----2-2-3-3-2--|---------------------------3-----------3------5-5-3--|------------------------------------------------------

file:///C|/Archivos%20de%20programa/eMule/Incoming/_cancionero-guitarra-bandurria_(1)/AmaliaRosa.htm (3 de 3)01/11/2008 10:44:40 p.m.

Amapola

AMAPOLA

(J. M. Lacalle)

Am
E7
De amor, en los hierros de tu reja,
Am
de amor escuche la triste queja,
Dm
Am
de amor que son en mi corazn
E
B7
E7 / G7
dicindome as con su dulce cancin.

C
Amapola, lindsima amapola,
Bbdim G7
ser siempre mi alma tuya sola.
Rm
Yo te quiero, amada nia ma,
G7
C
igual que ama la flor la luz del da.

C
Amapola, lindsima amapola,
A7
Dm A7 Dm
no seas tan ingrata, __ma_me,
F Fm
C
Cdim
Amapola, amapola,
Dm7
G7
C
cmo puedes t vivir tan sola.

file:///C|/Archivos%20de%20programa/eMule/Incoming/_cancionero-guitarra-bandurria_(1)/Amapola.htm01/11/2008 10:44:40 p.m.

Amarraditos

AMARRADITOS

(Margarita Durn / Pedro B. Prez)

Em7
Vamos amarraditos los
B7
T con un recrujir de
G
La gente nos mira con
E
murmuran las vecinas,

A7
D
dos, espumas y terciopelo.
Em
almidn y yo serio y altanero.
A7
D
B7
envidia por la calle,
E7
A7
las amigas y el alcalde.

Em7
A7
D
Dicen que no se estila ya ms ni tu peinetn ni mi pasador,
B7
Em
dicen que no se estila ya ms ni tu medalln ni mi cinturn.
G
A7
D
B7
Yo se que estilan tus ojazos y mi orgullo,
G
A7
D
cuando vas de mi brazo, por el sol y sin apuro.

Em7
A7
D
Nos espera nuestro cochero frente a la iglesia mayor,
A7
D
y a trotecito lento recorremos el paseo.
Gm
C7
F
Yo saludo tocando el ala de mi sombrero mejor,
E7
A7
y t agitas con donaire tu pauelo.

G
A7
D
No se estila, ya s que no se estila,
E7
A7
que me ponga para cenar jazmines en el ojal.
Em7
A7
Desde luego parece un juego,
D
pero no hay nada mejor que ser un seor,
Em7
A7
D
de aquellos que vieron mis abuelos.

file:///C|/Archivos%20de%20programa/eMule/Incoming/_cancionero-guitarra-bandurria_(1)/Amarraditos.htm01/11/2008 10:44:41 p.m.

Amelia

AMELIA

Dm
Tu gran sinceridad
A7
y tu buen corazn
Gm
inspiran en mi ser
A7
Dm / D7
esta bella cancin.

Gm
C
Perdona que te cante mal,
F
Dm
me falta el aliento
A7
para decirte nia
Dm / D7 (D en la 2)
lo que te quiero yo. (BIS)

D
B7
Em
Bella Amelia, t eres flor de primavera,
A7
D
nia hermosa de mis sueos ms sinceros.
Dm
Gm
A7
Estos versos son el canto de mi vida,
D
inspirados en tu dulce sonrer.

D
B7
Em
La cancin que en este da yo te canto,
A7
D
solo quiero que la guardes en tu mente,
Dm
Gm
A7
y cuando hayan transcurrido ya los aos,
D (Dm en el final)
no se esfume como el humo esta cancin.

file:///C|/Archivos%20de%20programa/eMule/Incoming/_cancionero-guitarra-bandurria_(1)/Amelia.htm01/11/2008 10:44:41 p.m.

Amigo

AMIGO

(Ren Carsaga)

Am
Em
B7 / Em / E7
Canta,
amigo!
Am
Em
B7 / Em / E7
Canta,
amigo!

Em
Am
Amigo, amigo,
B7
Em
Amigo de la tristeza soy.
Am
Amigo, amigo,
B7
Em
Buscando un amor yo voy.

E7
Am
No conozco el amor sincero,
D7
G
Todo es un momento ms,
C
B7
Dnde ests amor, te espero,
Am
B7
Em
S que nunca llegars.

Amigo, amigo. . .

D
A
Mi guitarra tambin llorando
C
Bm
Tiene su modo de cantar,
Em
B7
Y con ella voy suplicando
C
G
B7
Em
Un cario para amar.

Am
Lara
B7
Lara
Am
Lara
B7
Lara

lara la lai la lai Canta!


Em / E7
lara la rai....
lara la lai la lai Canta!
Em / E7
lara la rai....

Em
Lara lara la lai la lai Amigo!

Em
Lara lara la lai la lai Amigo!

Amigo, amigo. . .

E E7
Am
Cuando estoy para dormirme

file:///C|/Archivos%20de%20programa/eMule/Incoming/_cancionero-guitarra-bandurria_(1)/Amigo.htm (1 de 3)01/11/2008 10:44:41 p.m.

Amigo

D7
G
No tengo con quien soar.
C
B7
Cuando quiero emborracharme
Am
B7
Em
No tengo por quin brindar.

CIFRADOS
Canta!
Amigo!
|-3-3-3-2-0-0-2-3---------2-2-2-0-----0-2---------0-0-0---------0-2-2-0-----------------|---------------------------------3-3-------------------3-2-2-3---------3-2-3-4-3-4-----|---------------------------------------------------------------------------------------|
|
|-0-0-0---------0-----------------------------------------------------------------------|-------3-2-2-3-----------3-3-3-2-0-0-2-3---------2-2-2-0-----0-2-3-3-2-0---0-2-0-2-----|---------------------------------------------------------4-4-------------4--------------

Canta!
Amigo!
|-3-3-3-2-0-0-2-3---------2-2-2-0-----0-2---------0-0-0---------0-2-2-0----|---------------------------------3-3-------------------3-2-2-3---------3--|--------------------------------------------------------------------------|
|
|-0-0-0---------0----------------------------------------------------------|-------3-2-2-3-----------3-3-3-2-0-0-2-3---------2-2-2-0-----0-2-3-3-2-0--|---------------------------------------------------------4-4---------------

Amigo amigo amigo de la tristeza soy. Amigo amigo buscando_un amor yo voy.
|-----------0-2-2-2--2--2---2--7-2--2-------------0--2--2---2---2-2---2--7----|-0-0-3-3-2-----------------------------0-0-3-3-2-----------------------------|-----------------------------------------------------------------------------|
|
|-----------------------------------------------------------------------------|-0-0-0-0----------------------0----0---0-0-0-0--------------------------0----|---------1-1-4-4-4--4--4---4----4--------------1-1--1--0---0---0-4---4--------

No conozco_el amor sincero todo_es un momento ms donde_ests mi_amor te_espero se que


|-2--3-5---5---4-5---2--3-3--0--2---3---2-3--0--2-------0---2----1--2--------0-0--3---3-|---------------------------------------------------3--------------------3--------------|---------------------------------------------------------------------------------------|
|
|----0-2---2---1-2------0-0---------0-----0---------------------------------------0---0-|-3------------------3-------2--3-------4----2--3---0---2---3----2--3----0---2-2--------|----------------------------------------------------------------------------------------

nunca llegars.
|-2--2---0-0------|------------3----|-----------------|
file:///C|/Archivos%20de%20programa/eMule/Incoming/_cancionero-guitarra-bandurria_(1)/Amigo.htm (2 de 3)01/11/2008 10:44:41 p.m.

Amigo

|
|-----------------|-3--3---2-2-0----|------------------

Mi guitarra tambin llorando tiene su modo de cantar y con ella voy suplicando un
|--2---3-5--5--5---5----5-4--4--4--4--3--3-3--3--3--2--2--2--7--7--7---7--7-6--6-3------|---------------------------------------------------------------------------------------|---------------------------------------------------------------------------------------|
|
|---------------------------------------------------------------------------------------|------0-2--2--2---2----2-0--0--0--0--0--0-0--0--0-----0--2--3--3--3---3--3-2--2-0------|--3------------------------------------------------3------------------------------------

cario para_amar.
|--3-2-2--6--6--7----|--------------------|--------------------|
|
|--------------------|--0------------0----|----3-3--4--4--------

file:///C|/Archivos%20de%20programa/eMule/Incoming/_cancionero-guitarra-bandurria_(1)/Amigo.htm (3 de 3)01/11/2008 10:44:41 p.m.

A mi palomita

A MI PALOMITA

(Popular)

Em
A mi palomita
G
A
G
se la han robado cuatro coraceros
A
G
a ver si puedo rescatarla
B7
Em
con cuatro rifleros.

C
G
Fuerza s, fuerza no,
A
G
quiero rescatarte mi nia,
A
G
para fuerza basto yo,
B7
Em
pobre mi cholitay.

C
G
Por cerros y valles, entre las montaas,
A
G
a orillas del lago, en la selva o braa
A
G
no hay escondite profundo y lejano
B7
Em
que no pueda encontrar.

Em
G
)
A mi palomita
montaas,)
G
A
G
G
)
se la han robado cuatro coraceros
selva o braa )
A
G
G
)
a ver si puedo rescatarla
lejano
)

Em

( Por cerros y valles, entre las


( A
( a orillas del lago, en la
(

( no hay escondite profundo y

file:///C|/Archivos%20de%20programa/eMule/Incoming/_cancionero-guitarra-bandurria_(1)/AMiPalomita.html (1 de 2)01/11/2008 10:44:41 p.m.

A mi palomita

B7
Em
Em
)
con cuatro rifleros.
encontrar.

INTRODUCCIN:

B7

( que no pueda
)

D7, G, B7, Em, D7, G, B7, Em, B7, Em, B7, Em

file:///C|/Archivos%20de%20programa/eMule/Incoming/_cancionero-guitarra-bandurria_(1)/AMiPalomita.html (2 de 2)01/11/2008 10:44:41 p.m.

Los amores de Ana

LOS AMORES DE ANA

C
G
En una casa enfrente de la Universidad
Dm
G
C
Ana habita un piso bajo que es una preciosidad.
G
Al verla en su ventana la turba estudiantil
D7
F
G
la llenaba de piropos por lo linda y lo gentil.
F
D7
G
Y todos al pasar solanle cantar:
C
G7
Dm G7
C
"Ana, sal pronto por favor, Ana,
sal no te de rubor,
F
G7
C A7
Dm G7
C
Ana, que en tu ventana t eres la flor de luz, mi amor.
G7 Dm G7
C
Ana, si a mi querer das fe, Ana, de noche aqu vendr.
F G7
C A7
Dm
G7
C
Ana, por tu ventana me colar y mi amor te probar."

C
G
Anita a un estudiante de noche cita dio
Dm
G
C
y al llegar a la ventana empuj, salt y entr.
G
Y todos los vecinos, despus pudieron ver,
D7
F
G
que el que entraba por las noches base al amanecer.
F
D7
G
Y todos al pasar solanle cantar:
C
G7
Dm G7
C
"Ana, levntate a cerrar, Ana, te vas a constipar,
F G7
C A7
Dm G7
C
Ana, que tu ventana abierta est
de par en par".
G7
Dm G7
C
Ana desoye sin temor, Ana no siente ya rubor
F G7
C A7
Dm
G7
C
Ana, fresca y lozana como una flor se abre al beso del amor.

file:///C|/Archivos%20de%20programa/eMule/Incoming/_cancionero-guitarra-bandurria_(1)/AmoresDeAna.htm (1 de 2)01/11/2008 10:44:42 p.m.

Los amores de Ana

C
G
Anita que es piadosa fue a ver al confesor
Dm
G
C
y encendida y ruborosa sus pecados le cont.
G
"Acsome, le dijo, que en un curso, no ms,
D7
F
G
desfil por mi ventana toda la Universidad".
F
D7
G7
Y ciego de furor ruga el confesor:
C
G7
Dm G7
C
"Ana, te vas a condenar, Ana, no tienes salvacin,
F G7
C A7
Dm G7
C
Ana, de buena gana negrate
la absolucin"
G7
Dm G7
C
"Padre, deca, Ay!, yo pequ, pero culpa ma no fue,
F
G7
C A7
Dm
G7
C
Padre, pues mi ventana tan baja est, pase usted y lo ver".

file:///C|/Archivos%20de%20programa/eMule/Incoming/_cancionero-guitarra-bandurria_(1)/AmoresDeAna.htm (2 de 2)01/11/2008 10:44:42 p.m.

Angelitos negros

ANGELITOS NEGROS

(A. Eloy Blanco / M. lvarez Maciste)

Am
G
F
Pintor nacido en mi tierra,
E7
con el pincel extranjero,
Dm
E7
Dm
pintor que sigues el rumbo,
E7
de tantos pintores viejos.

Am
G
F
Aunque la virgen sea blanca,
E7
Dm
pntame angelitos negros,
E7
Dm
que tambin se van al cielo,
E7
todos los negritos buenos.

Dm
E7
Pintor si pintas con amor,
Am
G
Por qu desprecias su color,
F
si sabes que en el cielo,
Dm
E / E7
tambin los quiere Dios?

Am
G
F
Pintor de santos de alcoba,
E7
Dm
si tienes alma en el cuerpo,
E7
Dm
Por qu al pintar en tus cuadros,
E7
te olvidaste de los negros?

Am

file:///C|/Archivos%20de%20programa/eMule/Incoming/_cancionero-guitarra-bandurria_(1)/AngelitosNegros.htm (1 de 2)01/11/2008 10:44:42 p.m.

Angelitos negros

Siempre que pintas iglesias,


E7
Dm
pintas angelitos bellos,
E7
pero nunca te acordaste,
Am
de pintar un ngel negro.

file:///C|/Archivos%20de%20programa/eMule/Incoming/_cancionero-guitarra-bandurria_(1)/AngelitosNegros.htm (2 de 2)01/11/2008 10:44:42 p.m.

Ansiedad

ANSIEDAD

(J.E. Chelique Sarabia)

A E7
A
Ansiedad de tenerte en mis brazos,
Bbdim
E7
musitando palabras de amor.
Bm
E7
Ansiedad de tener tus encantos,
D
Dm
A
y en la boca volverte a besar.

C#7
F#m
Tal vez est llorando mi pensamiento,
C#7
F#m / A7
tus lagrimas son perlas que caen al mar.
D E7
A
F#7
Y el eco adormecido de este lamento,
Bm
E7
A
hace que ests presente en mi soar.

C#7
F#m
Quizs ests llorando al recordarme,
C#7
F#m A7
y estreches mi retrato con frenes.
D
E7
A
F#7
Y hasta tu odo llegue la meloda salvaje,
Bm
E7
A
del eco de la pena de estar sin ti.

file:///C|/Archivos%20de%20programa/eMule/Incoming/_cancionero-guitarra-bandurria_(1)/Ansiedad.htm01/11/2008 10:44:42 p.m.

Aquella tarde

AQUELLA TARDE

(Ernesto Lecuona)

D A7
D
D7
Yo quiero que tuu me quieras,
Em B7
Em
y t eres tan crueeeel que me desprecias.
A7
D B7
Si supieras lo mucho que he llorado
Em
A7
D (Cambio a ritmo rpido con G / A7)
desde aquella tarde en que te vi.

D
A7
Dime porqu no me quieres,
G A7
D
G A7
dime porqu me abandonas.
D
A7
Si tu eres mi vida y mi slo anhelo,
G
A7
D
si a ti solo quiero con toda el alma.

D
A7
Oye en noches pasadas
G F#7
Bm B7
so
que yo era tu amor,
G
A7
D F#7
B7
y al despertar me encontr con la realidad,
Em A7
D
que jams me querrs.

file:///C|/Archivos%20de%20programa/eMule/Incoming/_cancionero-guitarra-bandurria_(1)/AquellaTarde.htm01/11/2008 10:44:42 p.m.

Aquellos ojos verdes

AQUELLOS OJOS VERDES

(A. Utrera / Nilo Menndez)

C
Aquellos ojos verdes
de mirada serena,
dejaron en mi alma
C#dim
G7
eterna sed de amor.

Dm
Anhelos de caricias,
G7
de besos y ternuras,
A7
D7
de todas las dulzuras,
G7
que saban brindar.

C
Aquellos ojos verdes,
serenos como un lago,
A7
en cuyas quietas aguas,
Dm / A7 / Dm
un da me mir.

F
Fm
No saben las tristezas
C / Bb / A7
que en mi alma han dejado,
D7
aquellos ojos verdes,
G7
C
que yo nunca besar.

file:///C|/Archivos%20de%20programa/eMule/Incoming/_cancionero-guitarra-bandurria_(1)/AquellosOjosVerdes.htm01/11/2008 10:44:42 p.m.

Asturianina

ASTURIANINA

C
Cruzando el mar
G7
por vez primera yo me vi,
Dm
G7
para ir a La Habana a buscar
C
el amor que perd.

C
Un bergantn
G7
que con rumbo se dirigi
Dm
G7
a la patria querida del bien
C
que mi pecho aor.

Era una asturianina


G7
ms hechicera que un serafn.
Dm
Yo no he visto en el mundo
G7
C
cosa ms bella que aquel rub.

Dando un beso amoroso


C7
F
cogi una rosa y vino hacia m,
C
vino hacia m llorando
G7
C
y me dio un beso, beso de amor.

G7
Y en un velero
C
yo me embarqu,
G7
porque a mi Asturias
C
yo he de volver.

G7
Y hasta la muerte
C / C7
feliz ser,
F
porque a mi Asturias,
file:///C|/Archivos%20de%20programa/eMule/Incoming/_cancionero-guitarra-bandurria_(1)/Asturianina.htm (1 de 4)01/11/2008 10:44:43 p.m.

Asturianina

G7
porque a mi Asturias,
C
yo he de volver.

INTRODUCCIN:

53

40

42

F, G7, C

(BIS)

CIFRADOS

|-7-5-3-0-0--2-3-0-0------3-7-7-5--7-9-2-3---7-5-3-0-0--2-3-0-0------3-7-7-5--7-8-23---|--------------------3--3---------------------------------------3-3--------------------|---------------------------------------------------------------------------------------|
|
|--------------0------------3-3-2----0-------------------0------------3-3-2---0--------|-0-1-3-1-1--3---1-1-0--0-3--------3---1-0--0-1-3-1-1--3---1-1-0--0-3--------3---10----|----------------------------------------------------------------------------------------

Cruzando_el mar, por vez primera yo me vi. Para ir a La_Habana_a buscar el amor que
|----------------------------3-5-3--0--3--2---2-5-3--0---3---2------2--0----0----------|---0-0---1----3----3---3---------------------------------------3---------1---1--------|----------------------------------------------------------------------------------3---|
|
|-------------------------------------------------------0------------------------------|--------------0-------------0-1-0--1--0--------1-0--1-------3--0---3--1-----10--------|---1-1---3---------1---1-----------------3---3---------------------------3--------3----

perd. Y un bergantn ... (igual)


|--------|--1--0--|--------|
|
|--------|--------|--0--1---

Era_una_asturianina ms hechicera que_un serafn, yo no_he visto_en el mundo cosa ms


|------------0-2--0--------0--2-0--------------------0---0----0---2---3---2--0--0-2-3--file:///C|/Archivos%20de%20programa/eMule/Incoming/_cancionero-guitarra-bandurria_(1)/Asturianina.htm (2 de 4)01/11/2008 10:44:43 p.m.

Asturianina

|-3--3---3----------3--3----------3----3----1-01---------------------------------------|---------------------------------------------------------------------------------------|
|
|---------------------------------------------------------------------0-------------0--|-0--0---0---1-3--1-0--0---1--3-1-0----0-------------1---1----1---3-------3--1--13-----|-------------------------------------------3-23----------------------------------------

bella que_aquel rub. Dando_un beso_amoroso, cogi_una rosa_y vino_hacia mi.


Vino_hacia
|--2--0----0-------------------------0--2-0---------0--2--0-----------------0---0--0--2|--------------3---2-3---3---3----3---------3---3------------3---3--1--3---------------|---------------------------------------------------------------------------------------|
|
|--------------------------------------------------0-----------------------------------|--3--1----1---0-----0---0---0----0--1--3-1-0---0---1--3--1--0---0----------1---1--1--3|------------------4------------------------------------------------3--1----------------

mi llorando y me dio_un beso, beso de_amor.


|--3---0-0-------3----7----7-5---7-8---2--3----|-----------3-3--------------------------------|----------------------------------------------|
|
|--0------------------3----3-2-----0-----------|------1-1--0-0--3---------------3-----1--0----|-----------------------------------------------

Y_en un velero yo me_embarqu, porque_a mi_Asturias yo_he de volver. Y_hasta la muerte


|--7---5---3-3-2--5---3---0-----------------------------5----5--7--7----7----5--3--3--2|-----------------------------3---3----3----3---31-------------------------------------|---------------------------------------------------------------------------------------|
|
|--3---2---0-0----2---0---------------------------------2----2--3--3----3----2--0--0--2|--------------3----------1---0---0----0----0---0-------------------------------------3|------------------------------------------------3--------------------------------------

file:///C|/Archivos%20de%20programa/eMule/Incoming/_cancionero-guitarra-bandurria_(1)/Asturianina.htm (3 de 4)01/11/2008 10:44:43 p.m.

Asturianina

feliz ser, porque_a mi_Asturias, porque_a mi_Asturias, yo_he de |--5-3--0-------------------0-0-----0----0----0---2-2-----------7--|----------3---3----3----3----------------------------------3-------|-------------------------------------------------------------------|


|
|--2-0--------------------------------------------------------------|--------1-0---0----0----0---1-1-----1----1----1---3-3------3----3--|--------------------------------------------------------------------

volve___________________er.
|-5--------0-2-0-----0-2-3----|----3-3-3-------3-3----------|-----------------------------|
|
|-----------------------------|-1--0-0-0-1-3-1-0-0-1-3-0----|------------------------------

file:///C|/Archivos%20de%20programa/eMule/Incoming/_cancionero-guitarra-bandurria_(1)/Asturianina.htm (4 de 4)01/11/2008 10:44:43 p.m.

Asturias

ASTURIAS

(Vctor Manuel)

E
F
E
Asturias, si yo pudiera, si yo supiera cantarte.
E
F
E
Asturias verde de montes y negra de minerales.

Am
E7
Am
G
F
E7
Yo soy un hombre del Sur, polvo, sol, fatiga y hambre,
C
G
F E7
hambre de pan y horizontes, hambre.

Am
E7
Am
G
F
E7
Bajo la piel resecada, ros slidos de sangre,
C
G
F
E7
y el corazn asfixiado, sin venas para aliviarte.

Am
E7
Am
G
F
E7
Los ojos, ciegos los ojos, ciegos de tanto mirarte,
C
G
F
E7
sin verte Asturias lejana, hija de mi misma madre.

Am
E7
Am
G
F
E7
Dos veces, dos, has tenido, ocasin para jugarte,
C
G
F
E7
la vida en una partida, y las dos te la jugaste.

Am
E7
Am
G
F
E7
Quin derribar ese rbol, de Asturias, ya sin ramaje,
C
G
F
E7
desnudo, seco, clavado, con su raz entraable.

Am
E7
Am
G
F
E7
Recorre por toda Espaa, crispndonos de coraje,
C
G
F
E7
mirad toreros del mundo, su silueta recortarse.

file:///C|/Archivos%20de%20programa/eMule/Incoming/_cancionero-guitarra-bandurria_(1)/Asturias.htm (1 de 2)01/11/2008 10:44:43 p.m.

Asturias

Am
E7
Am
G
F
E7
Contra ese cielo impasible, vertical e inquebrantable,
C
G
F
E7
firme sobre roca firme, herida viva su carne.

Am
E7
Am
G
F
E7
Millones de puos gritan su clera por los aires.
C
G
F
E7
Millones de corazones, golpean contra tus crceles.

Am
E7
Am
G
F
E7
Prepara tu salto ltimo, lvida muerte cobarde,
C
G
F
E7
prepara tu ltimo salto, que Asturias est aguardndote.

C
Sola en mitad de
F
hija de mi misma
C
Sola en mitad de
F
E7
aaah, aaah.

G
la tierra,
E7
madre.
G
la tierra,

file:///C|/Archivos%20de%20programa/eMule/Incoming/_cancionero-guitarra-bandurria_(1)/Asturias.htm (2 de 2)01/11/2008 10:44:43 p.m.

Asturias, patria querida

ASTURIAS, PATRIA QUERIDA

D
G
A7 D
Asturias, patria querida,
G
A7
D
Asturias de mis amores.
G
A7 D
Quin estuviera en Asturias,
G
A7
D
D7
en todas las ocasiones.

G
Tengo de subir al rbol,
A7
D
tengo de coger la flor,
B7
Em
y drsela a mi morena
A7
D
que la ponga en el balcn.

D7
G
Que la ponga en el balcn,
A7
D
que la deje de poner,
B7
Em
tengo de subir al rbol,
A7
D
y la flor he de coger.

CIFRADOS
Asturias, patria queri_____ida, Asturias de mis amo____res. Quin estuviera_en
|----------------------0-2-4-2-0--0--2------2--0----00---------------------------------|----2-2-----3--2----3-----------------3----------3-----3-2---------2--2-3--2----------|---------------------------------------------------------------------------------------|-3------------------------------------------------------------3-----------------------|
|
|-------------------------0------------------------------------------------------------|------------0-------0-2-3---3-2--2--3-0----3--2--0-2-2-0---------------0--------------|----3-3--------3-----------------------------------------3---------3--3----3----------|-3------------------------------------------------------------3-----------------------|
|
|----5-4-----2---------0-2-4-2-0--0--5-2----5--4--2-5-5-2-0---------5--42--------------|-2-------------2----3------------------------------------------2-----------file:///C|/Archivos%20de%20programa/eMule/Incoming/_c...nero-guitarra-bandurria_(1)/AsturiasPatriaQuerida.htm (1 de 3)01/11/2008 10:44:43 p.m.

Asturias, patria querida

2----------|-3------------------------------------------------------------3------------------------

Astu_____urias, en todas las ocasio__ones.


|----0-2-4-2--0---0---2-----2--0---0-0--------|-3---------------------3--------3-----3-2----|---------------------------------------------|
|--------0------------------------------------|-0--2-3---3--2---2---3-0---3--2-0-2-2-0------|----------------------------------------3----|
|
|----0-2-4-2--0---0---5-2---5--4-2-5-5-2-0----|-3-------------------------------------------|----------------------------------------------

Tengo de subir al rbol, tengo de coger la flor, y drsela_a mi morena que la ponga_en
|-----------2-2--0--2--2----4--4--2--0---------0---2--2--0-----------------0--0--0--2--|--------------------------------------2---3----------------3---0--2-33----------------|--3--3-3------------------------------------------------------------------------------|
|
|---------------------------0-0--------------------------------------------------------|-----------3-3--2--3--3----------3--2-----0---2---3--3--2--0--------0-0---2--2--2--3--|--3--3--3-----------------------------3------------------------2-3--------------------|
|
|-----------5-5--4--2--2----4--4--5--4-0---2---4---2--2--4--2------0-2-2---4--4--4--5--|--2--2--2-----------------------------------------------------3-----------------------|----------------------------------------------------------------------------------------

el balcn. Que la ponga_en el balcn, que la deje de poner, tengo de subir al rbol y
|-0----------------------2---2---0--2-----4--4--2-0-------0----2--2--0---------------0-|-----3--2-------------------------------------------2--3---------------3-0--2--3-3----|--------------3--3-3------------------------------------------------------------------|
|
|-----------------------------------------0-0------------------------------------------|-2---0------------------3---3---2--3-----------3-2-----0-2----3--3--2--0-------0--0-2-|--------3-----3--3--3-------------------------------3--------------------2-3-----------

file:///C|/Archivos%20de%20programa/eMule/Incoming/_c...nero-guitarra-bandurria_(1)/AsturiasPatriaQuerida.htm (2 de 3)01/11/2008 10:44:43 p.m.

Asturias, patria querida

|
|
|-4---2--0---------------5---5---4--2-----4--4--5-4--0--2-4----2--2--4--2----0--2--2-4-|--------------2--2--2---------------------------------------------------3-------------|----------------------------------------------------------------------------------------

la flor he de coger.
|--0---0---2--0--4-5----|-----------------------|-----------------------|
|
|------------------0----|--2---2---3--2--0-2----|------------------3----|
|
|--4---4---5--4--7-9----|-----------------------|------------------------

file:///C|/Archivos%20de%20programa/eMule/Incoming/_c...nero-guitarra-bandurria_(1)/AsturiasPatriaQuerida.htm (3 de 3)01/11/2008 10:44:43 p.m.

La Aurora

LA AURORA

D
A7
D
Cuando la aurora extiende su manto
G
A7
y el firmamento viste de azul,
G
A7
D
B7
no hay un lucero que brille tanto
Em
A7
D
como esos ojos que tienes t.

A7
D
Bella aurora, si es que duermes
A7
D D7
en brazos de la ilusin,
G
D
despierta si ests dormida, morena
Em
A7
D
D7
para escuchar mi cancin de amor,
G
D
despierta si ests dormida, morena
Em
A7
D
para escuchar mi cancin.

B7
s,

B7
s,

D
A7
D
Bella nia sal al balcn
D7
G
que te estoy esperando a ti,
D
B7
para darte una serenata,
Em
A7
D
slo, slo para ti.

CIFRADOS
|--0-0-0-0---0-2-0-0-----5-4-2-0-----0-0-0-0---0-2-0-4---4-2-0-2---2-2-2-2-1-2-4-2-20--|----------4---------2-----------3----------4------------------------------------------|---------------------------------------------------------------------------------------|
|
|------------------------2-0-------------------------0---0--------------------0--------|--2-2-2-2-1-2-3-2-2---------3-2-0---2-2-2-2-1-2-3-2-------3-2-3---3-3-3-3-2-3---3-32--|-------------------3-------------------------------------------------------------------

|--5-4-2-0-----0-0-0-0---2-0-------5-4-2-0----|----------3-----------3-----3-2-----------3--|---------------------------------------------|
file:///C|/Archivos%20de%20programa/eMule/Incoming/_cancionero-guitarra-bandurria_(1)/Aurora.htm (1 de 3)01/11/2008 10:44:43 p.m.

La Aurora

|
|--2-0-----------------------------2-0--------|------3-2-0---2-2-2-2-0-3-2-0---------3-2-0--|------------------------------3---------------

Cuando la_aurora_extiende su manto


y_el firmamento viste de_azul,
|--0---0---0---0------0---2--0--0-----5-4-2-0-----0----0--0-0-----0--2---0--4-4-2-02--|-----------------4----------------2----------3---------------4------------------------|---------------------------------------------------------------------------------------|
|
|-------------------------------------2-0-----------------------------------0-0--------|--2---2---2---2--1---2---3--2--2---------3-2-0---2----2--2-2--1--2--3---2-------3-23--|---------------------------------3----------------------------------------------------|----------------------------------------------------------------------------------------

no_hay un lucero que brille tanto


como_esos ojos que tienes t.
|---2----2---2-2-1---2---4--2--2--0--5-4-2-0----0--0--0--0------2--0---------5-4-20----|--------------------------------------------3-------------3----------3---2----------32|---------------------------------------------------------------------------------------|
|
|------------------------0-----------2-0-------------------------------------20--------|---3----3---3-3-2---3------3--3--2------3-2-0--2--2--2--2-0----3--2--0----------3-20--|-------------------------------------------------------------------------------------3|------------------------------------------------------------------------3--------------

Bella_aurora si_es que duermes, en brazos de la ilusin.


Despierta si_ests
|------0---0-----------2--2---0--------0-0----------2-0---5-4-3--0--2---2---2--2-------|--2---------3---3----------------2----------3-3---------------------------------------|---------------------------------------------------------------------------------------|
|
|---------------------------------------------------------------------------------------|------2---20---0-----3--3---2--------2-2---0--0---3-2----------2--3---3---3--3-------|--3-----------------------------3------------------------------------------------------

dormida, morena s, para_escuchar mi cancin de_amor, despierta si_ests dormida,


|--4--2-0-----0-2--0----------0--2---0--------------0----0--2---2---2---2---4--20-------

file:///C|/Archivos%20de%20programa/eMule/Incoming/_cancionero-guitarra-bandurria_(1)/Aurora.htm (2 de 3)01/11/2008 10:44:43 p.m.

La Aurora

|-----------4----------3--3--------------3-2----3--------------------------------------|---------------------------------------------------------------------------------------|
|
|--0-----------------------------------------------------------------------0-----------|-----3-2---1-2-3--2---0--0---2--3---2--0--------0--2----2--3---3---3---3------32------|-----------------------------------------3--------------------------------------------|----------------------------------------------------------------------------------------

morena s, para_escuchar mi cancin.


|----0-2--0----------0--2---0----------0-0-0-0-0-0--|--4----------3--3-------------3--2----2-2-2-2-2-2--|--------------------------------------3-3-3-3-3-3--|
|
|--------------------------------------0-0-0-0-0-0--|--1-2-3--2---0--0---2--3---2--0-------2-2-2-2-2-2--|---------------------------------3----3-3-3-3-3-3--|--------------------------------------0-0-0-0-0-0---

Bella nia sal al balcn, que te_estoy esperando_a ti, para darte_una serenata, slo
|--------0-0--0--2---0----------------0--0--0-2---0---4-----0--2---2--2--4-2-2-0---05--|--2--3-----------------2-----2---3----------------------3-----------------------------|---------------------------------------------------------------------------------------|
|
|-----------------------------------------------------0------------------0----------2--|-----0--2-2--2--3---2------------0---2--2--2-3---2-------0-2--3---3--3----3-3-2--2----|--3--------------------3----3----------------------------------------------------------

slo para ti.


|--4-2--0--------|---------3--2---|----------------|
|
|--0-------------|----3--2-0------|------------3----

...slo, slo para ti.


--0-5---4-2--4-7--5------------------------------------------------

----2---0----0----------2-------3----3--2--------------------------

file:///C|/Archivos%20de%20programa/eMule/Incoming/_cancionero-guitarra-bandurria_(1)/Aurora.htm (3 de 3)01/11/2008 10:44:43 p.m.

Ave Mara en el Morro

AVE MARA EN EL MORRO

(H. Martins)

A7M
A7
D7M
Dm
Hay un ro, un monte de chocitas chiquititas,
A7M Ed
Bm E7
A7M
es el Morro, de los ne__egros la mansin.
A7
D7M
Es tan humilde, tan desgraciada y tan sencilla,
Dm
A7M Ed
Bm E7
A7M
ni siquiera una capilla da cobijo para rezar.

A7
D7M
Pero se vive cerca del cielo y con piedad,
Dm
A7M Ed
Bm
E7
A7M A7
la noche con su manto cubre las chozas, lleva la paz.
Dm
A7M F#7
Bm
E7
A7M A7
Y all se escucha al fin del da,
una plegaria, Ave Mara,
Dm
A7M F#7
Bm
E7
Y all se escucha al fin del da,
una plegaria,

A7M Bbd
Bm7 E7 D Ebd
C#7
Aaaaaave Mariia, Aaaaave Mara,
D
Ebd
A
F#7
Aunque no tenga capilla, reza la gente sencilla.
Bm7 E7
A A7
Aaaave Mara.

D
Ebd
A
F#7
Aunque no tenga capilla, reza la gente sencilla.
Bm7 E7
A Dm
AM7
Aaaave Maria, Ave Mara.

file:///C|/Archivos%20de%20programa/eMule/Incoming/_cancionero-guitarra-bandurria_(1)/AveMariaEnElMorro.htm01/11/2008 10:44:44 p.m.

La barca

LA BARCA

(Roberto Cantoral)

C
Bbd
Dm
Dicen que la distancia es el olvido
G7
C G7
pero yo no concibo esa razn,
C
Bbd
Dm
porque yo seguir siendo el cautivo
G7
C E7
de los caprichos de tu corazn.

Am
E7
Am
Supiste esclarecer mis pensamientos,
D7
G
me diste la verdad que yo so,
F
ahuyentaste de m los sufrimientos
F7
E7 A7
en la primera noche que te am.

Dm
Fm
Hoy mi playa se viste de amargura,
C
Em Bbd
porque tu barca tiene que partir
Dm
G7
a cruzar otros mares de locura,
C
Bb
A7
cuida que no naufrague tu vivir.

Dm
Fm
Cuando la luz del Sol se est apagando,
C
Em Bbd
y t te sientas cansada de vagar,
Dm
G7
piensa que yo por ti estar esperando
C
hasta que t decidas regresar.

file:///C|/Archivos%20de%20programa/eMule/Incoming/_cancionero-guitarra-bandurria_(1)/Barca.htm01/11/2008 10:44:44 p.m.

La barca de oro

LA BARCA DE ORO

(Abundio Martnez)

A
Yo ya me voy
B7
E7
al puerto donde se halla
Bm
la barca de oro
E7
A
que debe conducirme.

A7
D
No ms vengo a despedirme,
A
adis mujer,
E7
A
adis para siempre, adis.

E7
No volvern,
A
tus ojos a mirarme, (no volvern)
E7
ni tus odos
A
escucharn mi canto. (Voy a aumentar)
F7#
Bm
los mares con mi llanto.
A
Adis mujer,
E7
A
adis para siempre adis.

file:///C|/Archivos%20de%20programa/eMule/Incoming/_cancionero-guitarra-bandurria_(1)/BarcaDeOro.htm01/11/2008 10:44:44 p.m.

Barlovento - Estanislao

BARLOVENTO - ESTANISLAO

Dm
A7
Dm
Barlovento, Barlovento, tierra ardiente y del tambor,
A7
Dm
Barlovento, Barlovento, tierra ardiente y del tambor.
C
F
Tierra de la fula y negras finas,
A7
Dm
que llevan de fiesta sus cinturas prietas,
Gm
Dm
A7
Dm
al son de la curbeta y el taki ti taki de la mina,
Gm
Dm
A7
Dm
al son de la curbeta y el taki ti taki de la mina.

Dm
A7
Dm
Sabroso que mueve el cuerpo la barloventea cuando camina,
A7
Dm
sabroso que suena el taki, ti taki de la mina.
C
F
C
F
Que vengan los conunqueros, para el baile de San Juan,
C
F
C
F
que vengan los conunqueros, para el baile de San Juan.
A7
Dm A7
Que la mina est templada pa cerrar el taki taki tit,
Dm
A7
Dm
taki taki taki tit, taki taki ta.

Gm, A7, Gm, A7, Gm, Dm, A7, Dm (BIS)

Dm
A7
Dm
Yo soy de los mismo llanos, yo me llamo Estanislao,
A7
Dm
yo me resbalo en lo seco, yo me paro en lo mojao.
A7
Dm
Y aquel que no me creyera que se plante bien plantiao,
A7
Dm
que salga paqui pal medio con el sombrero ladeao.

Gm

A7

Gm

A7

file:///C|/Archivos%20de%20programa/eMule/Incoming/_cancionero-guitarra-bandurria_(1)/Barlovento.htm (1 de 2)01/11/2008 10:44:45 p.m.

Barlovento - Estanislao

Pa demostrarle que soy un macho requetemplao,


Gm
Dm
A7
Dm
y que este valor que tengo no lo consegu prestao,
Gm
Dm
A7
Dm
y que este valor que tengo no lo consegu prestao.

Dm
A7
Dm
El mestro que me ense me ense bien enseao,
A7
Dm
me dijo que no cantara con ningn encalambrao.
A7
Dm
Tambin me dijo mi mama que no fuera enamorao,
A7
Dm
pero al ver una muchacha me le voy de medio lao.

Gm
A7
Gm
A7
Como el gallo a la gallina, como la garza al pescao,
Gm
Dm
A7
Dm
como la mujer bonita para el hombre enamorao,
Gm
Dm
A7
Dm
como la mujer bonita para el hombre enamorao.
Taki tit...

file:///C|/Archivos%20de%20programa/eMule/Incoming/_cancionero-guitarra-bandurria_(1)/Barlovento.htm (2 de 2)01/11/2008 10:44:45 p.m.

Barrio Brujo

BARRIO BRUJO

A
Entre los barrios sevillanos,
existe uno de leyenda,
G
F
pues son sus calles tan solitarias
E7
que es un encanto.
G
Y en el verano
F
E7 / 42, 40, 53, 52, 50, 63, 61, 60, 61, 60
en ninguna de ellas penetra el Sol.

A
Plaza preciosa de Doa Elvira,
Bbd
E7
es el ms bello placer en esta vida,
Bm
E7
hermosa y bella, pues son notables,
Bm
E7
A
Santa Teresa, Lope de Rueda y los Venerables.

A
Plaza preciosa de Doa Elvira,
A7
D
calle Pimienta y del Agua el callejn,
Dm
A
F#7
bellos jardines de Murillo,
Bm E7
A / E7 / A
lo ms hermoso que Dios cre.

E
Am
Plaza preciosa, de luces y de claveles,
G
F
E7
como sultanas viven tus mujeres
E
Am
engalanadas, siempre tras de la reja,
G
F
E7 / 42, 40, 53, 52, 50, 63, 61, 60, 61, 60
que en grandes fiestas tan solo se ven.

INTRODUCCIN:

Am, G, F, E7, Am, G, F, E7, 42, 40, 53, 52, 50, 63, 61, 60, 61, 60

CIFRADOS
|-0-2-3-0-2-3--0-2---0-2----0-2-0----------0-2-3-0-2-3--0-2---0-2----0-20--------------|------------------3------3-------3-1-0---------------------3------3-------3-10--------|---------------------------------------------------------------------------------------file:///C|/Archivos%20de%20programa/eMule/Incoming/_cancionero-guitarra-bandurria_(1)/BarrioBrujo.htm (1 de 2)01/11/2008 10:44:45 p.m.

Barrio Brujo

|----------------|-0---0----0-0---|---1---0---------

Entre los barrios sevillanos, existe uno de leyenda, pues son sus calles tan
solitarias
|------------0-------2----2-0----------0----2----2--0---0----2---3---2--3---2---0---02-|-0------0------4------4--------0----0---4-----4---------------------------------3-----|-----2--------------------------2------------------------------------------------------

que_es un encanto, y_en el verano_en ninguna de_ellas penetra_el Sol.


|----0----------------0---2---3-2--3----2--0-----0---2---0---------------------------|--------3--1--1--0--------------------------3-------------3---1----0---0---0---0-0--|-------------------------------------------------------------------------1---0-------

Plaza preciosa de Doa_Elvira, es el ms bello placer en esta vida, hermosa_y bella


|---4-4---0-2--0--4--4--0---2-0--0--0----------------------------------2--2--0--0------|---------------------------------------4---2--0---0-2--0--2--0--2-4---------------4---|----------------------------------------------------------------------------------------

pues son notables Santa Teresa, Lope de Rueda_y los venerables. Plaza preciosa de
|--2----2---0-0--------------------------------0--------------------4-4---0-2--0-4-----|----------------4---4--4--4-4-4---4-4--4--4-------4---2-0-2-0-------------------------|----------------------------------------------------------------------------------------

doa_Elvira, calle Pimienta y del Agua_el callejn, bellos jardines de Murillo, lo ms


|--4--0---2-0---0--0--0--2--0-0--0--2---0--------------0--0---0--0-0---5--4-2--0---0-0-|--------------------------------------------3--32-------------------------------------|----------------------------------------------------------------------------------------

hermoso que Dios cre_o_.


|-----------5--5-----4-2-0---|--4--2-0--------------------|-----------------------------

file:///C|/Archivos%20de%20programa/eMule/Incoming/_cancionero-guitarra-bandurria_(1)/BarrioBrujo.htm (2 de 2)01/11/2008 10:44:45 p.m.

Basura

BASURA

(Alfredo Gil)

A
C#m7
F#m
Cd
Bm7
T reviviste la amargura y el dolor de todo mi pasado,
E7
A
y envenenado con saliva de traicin, me muero enamorado.
F#7
Bm7
Por qu las noches que me diste de placer se fueron tan temprano?
A F#m
Bm7
E7
A
Que ya no vi
la luz del Sol, porque no est mi lecho acompaado.

Dm
E7
A G F#7
Bm7 E7
A
A7
Tu amor fue para m
un mundo extrao tan lleno de mentiras,
Dm
E7
A G F#7
B7
E7
A
tu amor fue para m,
desgracia para siempre que no tiene fin.

A
C#m7
F#m
Cd
Bm7
No me conforman las caricias de otro ser, si ya no son las tuyas,
E7
A
y solo espero que te vuelva a recoger como cualquier basura,
F#7
Bm7
porque yo debo perdonar por la razn que tienes hermosura.
A F#m
Bm7
E7
A
Y yo tambin
me confund, cuando te vi basura me volv.

Tu amor...

A
C#m7 F#m
Lara, larai,.....
A
basura me volv.

Bm7

E7

file:///C|/Archivos%20de%20programa/eMule/Incoming/_cancionero-guitarra-bandurria_(1)/Basura.htm01/11/2008 10:44:45 p.m.

Bsame mucho

BSAME MUCHO

(Consuelo Velzquez)

Dm
Gm
Bsame, bsame mucho,
F#d
Gm7
A7
Dm A7 Dm
como si fuera esta noche la ltima vez.
D7
Gm
Bsame, bsame mucho,
Dm
E7
A7
Dm
que tengo miedo a perderte, perderte despus.

Gm
Dm
Quiero tenerte muy cerca,
A7
Dm
mirarme en tus ojos, estar junto a ti.
Gm
Dm
Piensa que tal vez maana
E7
yo ya estar lejos,
A7
muy lejos de ti.

Bsame, bsame mucho, ...

file:///C|/Archivos%20de%20programa/eMule/Incoming/_cancionero-guitarra-bandurria_(1)/BesameMucho.htm01/11/2008 10:44:45 p.m.

El beso

EL BESO

(A. Ortega / F. Moraleda, de La estrella de Egipto)

B7
E
En Espaa, bendita tierra,
B7
E
donde puso su trono el amor,
A
G#
C#m
(A en el 5 traste)
solo en ella el beso encierra
A
B7
E
alegra, sentido y valor.

Am
La espaola cuando besa,
C
B7
es que besa de verdad,
Am
que a ninguna le interesa
C
B7
besar por frivolidad.

B7
Em
C
B7
El beso, el beso, el beso en Espaa,
Em
D
G
lo lleva la hembra muy dentro del alma.
C
B7
Em
Le puede usted besar en la mano,
Am
B7
C
o puede darle un beso de hermano,
Am
B7
Em
y as la besar cuanto quiera,
B7
pero un beso de amor,
Em
no se lo dan a cualquiera.

B7
E
Es ms noble, yo le aseguro,
B7
E
y ha de causarle mayor emocin
A G#
C#m
(A en el 5 traste)
ese beso sincero y puro

file:///C|/Archivos%20de%20programa/eMule/Incoming/_cancionero-guitarra-bandurria_(1)/Beso.htm (1 de 2)01/11/2008 10:44:46 p.m.

El beso

A
B7
E
que llevamos en el corazn.

La espaola cuando besa ...

INTRODUCCIN: Em, B7, Em, E7, Am, Em, B7, E

file:///C|/Archivos%20de%20programa/eMule/Incoming/_cancionero-guitarra-bandurria_(1)/Beso.htm (2 de 2)01/11/2008 10:44:46 p.m.

Bien carajo bien...

BIEN CARAJO BIEN...

A
El obispo de
Bm
con la picha
A
El obispo de
Bm
con la polla

Bbd
E7
las islas Filipinas,
E7
A
abre latas de sardinas.
Bbd
E7
las islas baleares,
E7
A
las abre de calamares.

Moraleja: As se demuestra con esmero,


la fuerza que en la polla tiene el clero.
A
Bbd
E7
Bm
E7
A
(*) Bien carajo, bien, de esta opinin participo yo tambin.

Un gato y una gata, se pusieron a follar en un ciruelo.


Por no tomar las debidas precauciones, menudo hostiazo se pegaron
contra el suelo.
Moraleja: Cuando quieras realizar el acto con la que amas,
no te andes por las ramas. (*)

La infanta doa Eulalia, se rascaba el chipich con una dalia.


La infanta doa Isabel, se rascaba el chipich con un clavel.
Moraleja: Desterremos de Espaa a las infantas,
por el mal uso que hacen de las plantas.
(*)

En el Africa del norte haba un negrito, que se quejaba de tener


muy corto el pito.
En el Africa del sur haba un negrote, que se quejaba de tener
largo el cipote.
Moraleja: En este mundo de desdichas
nadie est de acuerdo con el tamao de su picha.
(*)

Un Papa muy culto y escribano, se llev a una puta al Vaticano.


Por no tomar las debidas precauciones se pill unas tremendas
purgaciones.
Moraleja: Aunque sea infalible con la boca,
con la picha, el Papa, muchas veces se equivoca.
(*)
file:///C|/Archivos%20de%20programa/eMule/Incoming/_cancionero-guitarra-bandurria_(1)/BienCarajo.htm (1 de 2)01/11/2008 10:44:46 p.m.

Bien carajo bien...

file:///C|/Archivos%20de%20programa/eMule/Incoming/_cancionero-guitarra-bandurria_(1)/BienCarajo.htm (2 de 2)01/11/2008 10:44:46 p.m.

La Bikina

LA BIKINA

(Rubn Fuentes)

A
Solitaria camina la
F#m
y la gente comienza
D
C#7
dicen que tiene una
B7
dicen que tiene una

C#7
bikina,
Em7 A7
a murmurar,
F#m
pena,
E7
pena que le hace llorar.

A
C#7
Altanera, preciosa y orgullosa,
F#m
Em7 A7
no permite la quieran consolar,
D
C#7
F#m
Dm
pasa luciendo su real majestad
B7
E7
A
pasa, camina, los mira sin verlos jams.

Dm G7 C Am Dm
La bikina,
G7
C
tiene pena y dolor,
Dm G7 C Am F7
La bikina,
Dm
E7
no conoce el amor.

A
C#7
Solitaria camina la bikina,
F#m
Em7 A7
y la gente se pone a murmurar,
D
C#7
F#m
Dm
dicen de alguien que vino y se fue,
B7
E7
A
dicen que pasa las noches llorando por l.

file:///C|/Archivos%20de%20programa/eMule/Incoming/_cancionero-guitarra-bandurria_(1)/Bikina.htm01/11/2008 10:44:46 p.m.

La boliviana

LA BOLIVIANA

(Popular)

Dm
A7
Dm
De Bolivia vengo bajando,
Bb
C
F
ay, ay, ay! pobre mi cholitay,
A7
Dm
sabe Dios si volver a la tierra donde nac,
A7
Dm
sabe Dios si volver a la tierra donde nac.

Dm
A7 Dm
Clavelitos, clavelitos,
Bb C
F
Envueltos en un papelito,
A7
Dm
Corazn de piedra dura, ojos de manantialito,
A7
Dm
corazn de piedra dura, ojos de manantialito.

A#
C
Ya me voy, ya me voy,
F
ya me voy yendo,
A7
Dm
sabe Dios si volver a la tierra donde nac,
A7
Dm
sabe Dios si volver a la tierra donde nac.

Dm
A7
Dm
Dicen que las aguas crecen
A# C
F
cuando acaba de llover,
A7
Dm
as crecen mis amores cuando ya no te puedo ver.
A7
Dm
As crecen mis amores cuando ya no te puedo ver.

Ya me voy, ya me voy. . .
file:///C|/Archivos%20de%20programa/eMule/Incoming/_cancionero-guitarra-bandurria_(1)/Boliviana.htm01/11/2008 10:44:46 p.m.

Cada vez que te veo...

CADA VEZ QUE TE VEO...

(*) 40 54 52 A 50 52 54 D 40 54 52 A 50 52 54 40 44 32 40
(*)
Cada vez que te veo, se me endereza.
F#
Bm
A
Se me endereza cada vez que te veo, se me endereza,
(*)
el rabillo la boina, de la cabeza.
Veinticinco mujeres, cincuenta tetas.
Cincuenta tetas, veinticinco mujeres, cincuenta tetas.
Si las cuento tres veces, ciento cincuenta.
Doce frailes cartujos, en un convento.
En un convento doce frailes cartujos, en un convento.
Veinticuatro pelotas, doce instrumentos.
Y en la puerta la iglesia, te ech un casquete.
Te ech un casquete a la puerta la iglesia, te ech un casquete.
Si no llega a estar el cura, te echo hasta siete.
La mujer de Aladino dicen que vino.
Dicen que vino la mujer de Aladino, dicen que vino.
De una casa muy fina del Barrio Chino.
La mujer del Herrero dicen que tiene.
Dicen que tiene la mujer del herrero, dicen que tiene.
Por delante la fragua, detrs el fuelle.
Y arrancando patatas, te he visto el culo.
Te he visto el culo arrancando patatas, te he visto el culo.
Nunca vi locomotora que eche ms humo.
Cada vez que te veo, me chasca el rabo.
Me chasca el rabo cada vez que te veo, me chasca el rabo,
ser porque te quiero, hija de puta.

CIFRADOS

file:///C|/Archivos%20de%20programa/eMule/Incoming/...ncionero-guitarra-bandurria_(1)/CadaVezQueTeVeo.htm (1 de 2)01/11/2008 10:44:46 p.m.

Cada vez que te veo...

|-5-4-2-0--0-0-0---0-2-4-5--5-5-5---5-4-2-0--0-0-0---0-2-4-5-9-125--|------------------3-2-0-----------------------------3-2-0---20------ (*)
|------------------------3--3-3-3-------------------------3----------

Cada vez que te ve_o, se me_endereza


Se me_endereza cada
vez que te ve_o, se
|--0-0--0----0--0--2-0-------0--------------------------1-1-1----0--1--4-2---2---|------------------------2-------2-0---- (*) ----------0-22----------------------------|------------------------------------3---3--3-------------------------------------

me_endere_e_eza. El rabillo de la boina de la cabeza.


|---2---2-2-1-2-4--0---0-0--0--0--0--2--0-----0----------|------------------------------------------2-----2-0-----|----------------------------------------------------3----

file:///C|/Archivos%20de%20programa/eMule/Incoming/...ncionero-guitarra-bandurria_(1)/CadaVezQueTeVeo.htm (2 de 2)01/11/2008 10:44:46 p.m.

Calles sin rumbo

CALLES SIN RUMBO

(Pombo Angulo / Muoz Molleda)

Em
B7
Paso tras paso la noche al pasar
Em
por las acacias en flor,
E7
Am
los farolillos de gas al temblar,
C
B7
iluminan nuestro amor.

Em
B7
Plaza tranquila de barrio antan,
Em
reja que guarda el jardn,
E
E7
Am
paso tras paso, pasando,
Em
B7
E
por las calles de Madrid.

E
Cascorro, Cibeles,
B7
y el arco de Cuchilleros,
F#m
B7
mirando tus ojos
E
para decirte Te quiero!

F#m
Y entre las frondas del Prado escuchar,
F#7
B7
las cuatro fuentes cantar.
E
Cascorro, Cibeles,
B7
E
para decirte Te quiero!

Em
B7
Calles sin rumbo que van a soar
file:///C|/Archivos%20de%20programa/eMule/Incoming/_cancionero-guitarra-bandurria_(1)/CallesSinRumbo.htm (1 de 2)01/11/2008 10:44:47 p.m.

Calles sin rumbo

Em
donde la luz se apag,
E7
Am
los soportales te miran pasar,
C
B7
sombras de un viejo land.

Em
B7
Maceta humilde que alegra el balcn,
Em
flor de azahar o alhel,
E
E7
Am
paso tras paso, pasando,
Em
B7
E
por las calles de Madrid.

Cascorro . . .

INTRODUCCIN: B7, Em, B7, Em, Am, Em, B7, Am, Em, B7

file:///C|/Archivos%20de%20programa/eMule/Incoming/_cancionero-guitarra-bandurria_(1)/CallesSinRumbo.htm (2 de 2)01/11/2008 10:44:47 p.m.

Camarera de mi amor

CAMARERA DE MI AMOR

(J. Dolores Quiones)

Em
E7
Am
En este bar te vi por vez primera,
D7
G
y sin pensar te di mi vida entera,
Em
Am
en este bar brindamos con cerveza,
C
B7
en medio de tristeza y emocin.

Em
E7
Am
En este bar se hablaron tantas cosas,
D7
G
y se dijeron frases deliciosas,
Em
Am
en este bar pasaron tantas cosas,
C
B7
Em
por eso vengo siempre a este rincn.

Am
D7
G
Srveme un trago de ron
C
B7
y toma tu cerveza junto a mi corazn.
Em
T eres la camarera de mi amor.

Am
Em
Camarera, camarera,
Am
B7
Em
t eres la camarera de mi amor.

Am
Em
Srveme un trago a mi de ron,
B7
Em
camarera de mi amor.

Am
Em
Ven y tmate tu cervecita,
file:///C|/Archivos%20de%20programa/eMule/Incoming/...cionero-guitarra-bandurria_(1)/CamareraDeMiAmor.htm (1 de 2)01/11/2008 10:44:47 p.m.

Camarera de mi amor

B7
Em
pero juntito a mi corazn.

Am
Em
Camarera, camarera,
B7
Em
camarera de mi amor.

Am
Em
Camarera de mi vida,
B7
Em
camarera de mi amor.

Am
Em
No me niegues tu cario,
B7
Em
camarerita de mi corazn.

file:///C|/Archivos%20de%20programa/eMule/Incoming/...cionero-guitarra-bandurria_(1)/CamareraDeMiAmor.htm (2 de 2)01/11/2008 10:44:47 p.m.

Caminemos

CAMINEMOS

(H. Martins)

Dm
Gm
A7
No, ya no debo pensar que te am,
Gm
Dm
es preferible olvidar que sufrir.
D7
No, no concibo que todo acab,
que este sueo de amor termin,
Gm D7
Gm
que la vida nos separ sin querer,
Dm
E7 A7
Dm
caminemos, tal vez nos veremos despus.

A7
Dm
Esta es la ruta que estaba marcada,
D7
Gm
sigo insistiendo en tu amor que se perdi en la nada,
C7
Dm
y vivo caminando sin saber donde llegar,
Bb7
A7
Dm
tal vez caminando la vida nos vuelva a juntar.

Dm E7 A7
No, no, no.

INTRODUCCIN:

Gm, Dm, A7, Dm, D7, Gm, Dm, A7, Dm

file:///C|/Archivos%20de%20programa/eMule/Incoming/_cancionero-guitarra-bandurria_(1)/Caminemos.htm01/11/2008 10:44:47 p.m.

Camino verde

CAMINO VERDE

(C. Larrea)

D7
Gm A7
Dm
Hoy he vuelto a pasar por aquel camino verde,
C
Bb7
A7
que por el valle se pierde con mi triste soledad.
D7
Gm C7
F
D7
Hoy he vuelto a rezar a la puerta de la ermita,
Gm A7
D
y ped a tu Virgencita que yo te vuelva a encontrar.

D
En el camino verde,
Ebd
A7
camino verde que va a la ermita,
desde que t te fuiste
D
lloran de pena las margaritas

D
La fuente se ha secado,
Ebd
A7
las azucenas estn marchitas,
en el camino verde,
D
Dm
camino verde que va a la ermita.

D7
Gm A7
Dm
Hoy he vuelto a pasar por aquel camino verde,
C
Bb7
A7
y en el recuerdo se pierde
toda mi felicidad.
D7
Gm C7
F
D7
Hoy he vuelto a grabar nuestros nombres en la encina,
Gm A7
D
he subido la colina y all me he puesto a llorar.

En el camino verde ...


file:///C|/Archivos%20de%20programa/eMule/Incoming/_cancionero-guitarra-bandurria_(1)/CaminoVerde.htm (1 de 2)01/11/2008 10:44:47 p.m.

Camino verde

Gm
A7
D
Camino, camino verde.

file:///C|/Archivos%20de%20programa/eMule/Incoming/_cancionero-guitarra-bandurria_(1)/CaminoVerde.htm (2 de 2)01/11/2008 10:44:47 p.m.

Cancion con todos

CANCIN CON TODOS

(A. Tejada Gmez / C. Isella)

Am
E7
Salgo a caminar por la cintura csmica del Sur,
A7
Dm
piso en la regin ms vegetal del viento y de la luz,
Am
siento al caminar toda la piel de Amrica en mi piel,
Dm
F
B7
E7
y anda en mi sangre un ro que libera en mi voz su caudal.

Am
E7
Sol de alto Per, rostro Bolivia estao y soledad,
A7
Dm
un verde Brasil, besa mi Chile cobre y mineral,
Am
subo desde el Sur hacia la entraa Amrica y total,
Dm
F
E7
A
honda raz de un grito destinado a crecer y a estallar.

A
F
A
F
Todas las voces todas, todas las manos todas,
C
F Em F
E7
toda la sangre puede ser cancin en el viento,
A
F
A
F
canta conmigo canta hermano americano,
C
F Em F
E7
libera tu esperanza como un grito en la voz.

Am G F E7
Am G F
En la vooooooooz, en la voooooz
A
en la voz.

INSTRUMENTAL INTERMEDIO: Am, Dm, G, B7, E, Em, D, E, A

file:///C|/Archivos%20de%20programa/eMule/Incoming/_cancionero-guitarra-bandurria_(1)/CancionConTodos.htm01/11/2008 10:44:48 p.m.

Cancion

CANDOMBE PARA JOSE

(R. Ternn)

A
Bm
E
E
A
A7
D
E
F#m
Lai lai lai .....
A
En un pueblo olvidado, no se por qu,
Bm
ni su danza de moreno lo hace mover,
D
E
A
A7
en el pueblo lo llamaban Negro Jos,
D
E
F#m
amigo Negro Jos.

A
Con mucho amor candombea el Negro Jos,
Bm
tiene el color de la noche sobre su piel
D
E
A
A7
y es muy feliz candombeando dichoso de l,
D
E
A
amigo Negro Jos.

F#m
C#7
Perdname si te digo, Negro Jos,
F#m
que eres diablo, pero amigo, Negro Jos,
C#7
mi futuro va contigo, Negro Jos,
D
E
A A7 D
E
A
yo te digo porque se,
amigo Negro Jos.

A
Con mucho amor las miradas, cuando al bailar,
Bm
y el tamboril de sus ojos parece hablar
D
E
A
A7
y su camisa endiablada quiere saltar,
D
E
F#m
amigo Negro Jos.

file:///C|/Archivos%20de%20programa/eMule/Incoming/_cancionero-guitarra-bandurria_(1)/Candombe.htm (1 de 2)01/11/2008 10:44:48 p.m.

Cancion

A
No tienes ninguna pena, al parecer,
Bm
pero las penas de sobran, Negro Jos,
D
E
A
A7
y hasta en el baile las dejas, lo se muy bien,
D
E
A
amigo Negro Jos.

Perdname si te digo...

file:///C|/Archivos%20de%20programa/eMule/Incoming/_cancionero-guitarra-bandurria_(1)/Candombe.htm (2 de 2)01/11/2008 10:44:48 p.m.

Cancion

CNTAME UN PASODOBLE ESPAOL

(Tony Leblanc)

Am
E7
Am
Si comparas un manojo de claveles,
E7
Am
con las flores de otras tierras, tu vers,
A7
Dm
que el olor de los claveles espaoles,
F
E7
no lo pueden otras flores igualar.

Am
E7
Am
Si comparas un alegre pasodoble,
G7
C
con los mambos, boogie - boogie y el danzn,
F
vers entre todos ellos,
E7
lo que vale lo espaol.

E7
A
Cntame un pasodoble espaol,
Bbd
E7
que al orlo se borren mis penas,
Bm
E7
cntame un pasodoble espaol,
Bm
E7
A
pa que hierva la sangre en mis venas.

Gm
Dm
Si t vieras, vida ma,
E7
A
tu cante que bien me suena,
E7
A
cntame un pasodoble espaol.

Am
E7
Am
Si comparas con las rosas de tu boca,
E7
Am
los corales que se ocultan en la mar,
file:///C|/Archivos%20de%20programa/eMule/Incoming/...onero-guitarra-bandurria_(1)/CantameUnPasodoble.htm (1 de 2)01/11/2008 10:44:48 p.m.

Cancion

A7
Dm
tu vers como las rosas de tus labios
F
E7
son ms rojas y ms suaves que el coral.

Am
E7
Am
Si comparas a tu pelo con la noche
G7
C
y a tus ojos con la luz del mismo Sol,
F
vers que en el mundo entero
E7
lo que vale es lo espaol.

Cntame un pasodoble espaol ...

INTRODUCCIN: Am, E7, Am, Dm, E7, Am, Dm, E7

file:///C|/Archivos%20de%20programa/eMule/Incoming/...onero-guitarra-bandurria_(1)/CantameUnPasodoble.htm (2 de 2)01/11/2008 10:44:48 p.m.

Cancion

CANTINERO DE CUBA

Am
A7
Dm
Tiene mi Cuba un son y una cantina,
G7
C
hecha de caa y ron y agua marina.
Am
A7
Dm
El cantinero es un buen cubano,
E7
Gm A7
que una pena de amor lo volvi malo.

Dm
Am
Cantinero de Cuba, Cuba, Cuba,
B7
Cantinero de Cuba, Cuba, Cuba,
E7
Am (A7)
slo bebe aguardiente para olvidar.

(BIS)

Am
A7
Dm
Cuando va para el puerto siempre se asoma
G7
C
esperando el mensaje de una paloma.
Am
A7
Dm
El maldice a los vientos ms marineros:
E7
Gm A7
Por ti hincharon las velas de aquel velero!

Cantinero...

Am
Dm
Hoy me quiero emborrachar,
E7
para olvidar un pasado que
Dm
Si yo pudiera cantar, pero
E7
la recuerdo a todas horas,

Am
necesito ser amado,
Am A7
no se puede olvidar.
Am
la pena me ahoga,
Gm A7
y no la puedo olvidaaar.

file:///C|/Archivos%20de%20programa/eMule/Incoming/_cancionero-guitarra-bandurria_(1)/CantineroDeCuba.htm (1 de 2)01/11/2008 10:44:48 p.m.

Cancion

Cantinero....

file:///C|/Archivos%20de%20programa/eMule/Incoming/_cancionero-guitarra-bandurria_(1)/CantineroDeCuba.htm (2 de 2)01/11/2008 10:44:48 p.m.

Cancion

CARMENTEA

D7
G
Cantar del llano, cantar de brisa del ro,
A7
D
Ay, Carmentea tu corazn ser mo.

A7
D
Si te esquivas de mis labios, si te alejas de mi vida,
A7
D
comprende que de este amor, tu sers correspondida.

D7
G
Ay, Carmentea cuando ests bajo la luna,
A7
D
recuerda quien te quiere como a ninguna.

A7
D
En tu noches de desvelo, si al gallo t oyes cantar,
A7
D
recurdalo Carmentea, que hiciste mi alma llorar.

D7
G
Ojazos negros que matan cuando me miran,
A7
D
Ay, Carmentea mi pecho por ti suspira.

A7
D
Tu cuerpo de palma real, tus labios de corocora,
A7
D
y ese cabello tan negro del que mi alma se enamora.

D7
G
Cantar del llano, cantar de brisa del ro,
A7
D
Ay, Carmentea tu corazn ser mo.

file:///C|/Archivos%20de%20programa/eMule/Incoming/_cancionero-guitarra-bandurria_(1)/Carmentea.htm01/11/2008 10:44:48 p.m.

(BIS)

(BIS)

(BIS)

(BIS)

(BIS)

(BIS)

(BIS)

Cancion

CARTAGENERA

(F. Cabanillas / Noro Vanella)

Am
E7
Paseando mi soledad,
Am
por la playa de Marbella,
G
F E7
yo te vi cartagenera,
Am
luciendo tu piel morena.

Am
E7
Y en tibias noches de luna,
Am
cuando me besa la brisa,
G
F E7
yo siento cartagenera,
Am
el cascabel de tu risa.

E7
Cartagenera tu boca,
Am
es como guayaba madura,
E7
cartagenera tus ojos,
Am
en mi recuerdo perduran.

G
Cartagenera morena,
F
E7
baada con luz de luna,
Dm
Am
baada con luz de luna,
E7
Am
cartagenera morena.

file:///C|/Archivos%20de%20programa/eMule/Incoming/_cancionero-guitarra-bandurria_(1)/Cartagenera.htm01/11/2008 10:44:49 p.m.

Chipi chipi

CHIPI CHIPI

(Gabriel Rodrguez)

C
E7
Amor te voy a comprar
Am
C
D7
una avioneta para volar,
G7
C
en nuestra luna de miel.

D7
G
Y mira como suena al caminar,
D7
G 63 63 50 51 52
la cancin del chipi chipi para bailar.

C
G7
Chipi chipi, chipi chipi,
C
aprende a bailar el ritmo del chipi chipi.

C
E7
Amor te voy a comprar
Am
C
D7
un automvil para viajar,
G7
C
en nuestra luna de miel.

Y mira como suena ...

file:///C|/Archivos%20de%20programa/eMule/Incoming/_cancionero-guitarra-bandurria_(1)/ChipiChipi.htm01/11/2008 10:44:49 p.m.

Cielito lindo

CIELITO LINDO

(A. Varela / P.A. Fernndez)

A
Ese lunar que tienes,
Bbd
E7
cielito lindo, junto a la boca
Bm
E7
no se lo des a nadie,
Bm
E7
A
cielito lindo, que a mi me toca. (BIS)

A
A7
D F#7
Ay, ay, ay, ay!
Bm Dm
A
Canta y no llores
Bbd
Bm
porque cantando se alegran,
E7
Bm
E7
A
cielito lindo, los corazones. (BIS)

A
De la sierra morena,
Bbd
E7
cielito lindo, vienen bajando
Bm
E7
un par de ojitos negros,
Bm
E7
A
cielito lindo, de contrabando.

A
De tu cama a la ma,
Bbd
E7
cielito lindo, no hay ms que un paso,
Bm
E7
ahora que estamos solos,
Bm
E7
A
cielito lindo, dame un abrazo.

A
Pjaro que abandona,
Bbd
E7
cielito lindo, su primer nido
Bm
E7
si lo encuentra ocupado,
Bm
E7
A
cielito lindo, bien merecido.

INTRODUCCIN: A, Bbd, E7, Bm, E7, A (bis)

CIFRADOS

file:///C|/Archivos%20de%20programa/eMule/Incoming/_cancionero-guitarra-bandurria_(1)/CielitoLindo.htm (1 de 3)01/11/2008 10:44:49 p.m.

Cielito lindo

|--0-2-0-2-4-2-0-4-2-0---2-4-2-0-----2-4-2-4-5-4-2-5-4-2---4-5-4-2-0--|--------------------------------4------------------------------------|---------------------------------------------------------------------|
|
|---------------------------------------------------------------------|----------0-----0---------0------------------------------------------|--2-3-2-3---3-2---3-2---3---3-2-0---0-2-0-2-3-2-0-3-2-0---2-3-2-0-2--|------------------------------------------------------------------3---

Ese lunar que tienes cielito lindo junto_a la boca, no se lo des a nadie, cielito
|-0-0------------0--0-----------0-0----------------------------------------------------|------2-4----0---------2--4-0--------2---4---0--------4--4--4--2-0--------------------|------------------------------------------------3-0------------------3-3----0--23-----|
|
|---------------------------------------------------------------------------------------|---------------------------------------------------------------------------------------|-2-2--2-2----2--2--2---2--2-2--2--2--2---3---0--------3--3--3--3--2--2-0---0----------|------------------------------------------------3-2----------------------------32------

lindo que_a mi me toca.


(BIS)
|--------------------------|--0--0----0---------------|--------------3--2--0-----|----------------------3---|
|
|--------------------------|--0--0----0---------------|--------------3--2--0-----|----------------------3----

Ay, ay, ay, ay! Canta_y no llores, porque cantando se_alegran, cielito
|--------0-2--4---2---0--------2---2---0---4-0------------------------5--5---2---------|--0-2-4------------------2-----------------------0---2--0--2--2---0-------------40----|---------------------------------------------------------------------------------------|
|
|--------0-2--0---------------------------0--------------------------------------------|--0-2-4----------4---3---2----4---4---2-----0------------------------0--0----4-0------|-------------------------------------------------2---3--2--3--3---2--------------2-----

file:///C|/Archivos%20de%20programa/eMule/Incoming/_cancionero-guitarra-bandurria_(1)/CielitoLindo.htm (2 de 3)01/11/2008 10:44:49 p.m.

Cielito lindo

lindo los corazones.


|------------5-4-2-0----|--2--2--0--------------|------------3-2-0------|------------------3----|
|
|-----------------------|-----------------------|--3--3--2---0----------|--------------2-2-3-----

BIS

file:///C|/Archivos%20de%20programa/eMule/Incoming/_cancionero-guitarra-bandurria_(1)/CielitoLindo.htm (3 de 3)01/11/2008 10:44:49 p.m.

Las cintas de mi capa

LAS CINTAS DE MI CAPA

(Villena y Villella)

Am
E7
Cual amantes van las olas a besar
Am
las arenas de la playa con fervor,
E7
as van los besos mos a buscar
Am
de la playa de tus labios el calor.

E7
Si del fondo de la mina es el metal,
Am A7
y del fondo de los mares el coral,
Dm G7
C
F
de lo ms hondo del alma me brot
B7
E7
Am
G / F / E7 / F / E7
el cario mo que tengo yo.

A
Bbd
E7
Enredndose en el viento van las cintas de mi capa,
Bm
E7
A
y cantando a coro dicen quireme nia del alma.
A7
D
Con las cintas de mi capa, de mi capa estudiantil
A
F#7
Bm
E7
y un repique de campanas, y un repique de campanas
A E7 A
cuando yo te rondo a ti.

Am
E7
No preguntes cuando yo te conoc,
Am
ni averiges las razones del querer,
E7
slo se que mis amores puse en ti,
Am
el porqu no lo sabra responder.

E7
Para mi no cuenta tiempo ni razn
Am A7
de porqu te quiero tanto, corazn,
Dm G7
C
F
por tu amor a todas horas vivir,
B7
E7
Am
G / F / E7 / F / E7
sin tu amor cario mo morir.

INTRODUCCIN: Dm, G7, C, F, B7, E7, Am, A7, Dm, G7, C, F, B7, E7, Am, E7, Am

file:///C|/Archivos%20de%20programa/eMule/Incoming/_cancionero-guitarra-bandurria_(1)/CintasDeMiCapa.htm (1 de 4)01/11/2008 10:44:49 p.m.

Las cintas de mi capa

CIFRADOS
|--7-7-7-8-7-5---5-5-5-7-5-3---3-3-3-5-3-2---5-3-2-3-5-7---7-7-7-8-7-5---5-5-5-7-53----|---------------------------------------------------------------------------------------|---------------------------------------------------------------------------------------|
|
|--3-3-3-5-3-2---2-2-2-3-2-0---0-0-0-2-0-----2-0---0-2-3---3-3-3-5-3-2---2-2-2-3-20----|----------------------------------------4------4--------------------------------------|----------------------------------------------------------------------------------------

|--3-3-3-5-3-2---5-3-2-0---0-----0--|------------------------4-----0----|-----------------------------------|
|
|--0-0-0-2-0-----2-0-------0-----0--|------------4-------4-2-4-----0----|------------------------------------

Cul amantes van las olas a besar las arenas de la playa con fervor, as van los besos
|--------0--0---0---0--0-0-----0-2------0-2-2---2--2---3-2--0------0---3-2--3---2--0---|--0---0--------------------4--------4--------------------------4--------------------3-|---------------------------------------------------------------------------------------|
|
|----------------------------------------------------------------------0---0-----------|--0---0-----------------------------------------------0-----------------3------3---10-|--------1--1---1---1--1-1--0--1-3---0--1-3-3---3--3-----3--1---0-1--------------------|----------------------------------------------------------------------------------------

m_os a buscar, de la playa de tus labios el calor. Si del fondo de la mina_es el


metal
|------------------2--0---2-0----------------------------------0-0--0--0--0--0-------02|--1-0-------------------------3--1---0-----------0----0--0---------------------4------|-------3--1--3-------------------------3---1--3---------------------------------------|
|
|---------------------------------------------------------------------------------------|------------------3--1---3-1--0------------------0----0-0-----------------------------|--3-1--0-----0-------------------3---1-0---1---3--------------1-1--1--1--1--1---0---1-

file:///C|/Archivos%20de%20programa/eMule/Incoming/_cancionero-guitarra-bandurria_(1)/CintasDeMiCapa.htm (2 de 4)01/11/2008 10:44:49 p.m.

Las cintas de mi capa

3|---------3-----------------------------------------------------------------------------

y del fondo de los mares el coral, de lo ms hondo del alma me brot el cario m_o
|----0---2--2--2--2---3-2--3---5-7----8--7--5---8--7--5--7--5--3---2-0-5---3-2-3--20---|4-------------------------------------------------------------------------------------|---------------------------------------------------------------------------------------|
|
|----------------------------------------------------------------------2---0--0--------|---------------------0----------0-------------------------------------------4----41---|-0--1---3--3--3--3-----3--1---3------3--1--0---3--1--0--1--0----------0-----------0---|--------------------------------------------------------------3---2-3-----3-2-3-2------

que te tengo yo.


|------0--3--2--0----0-2-3-0-5---0-2-3-0-2---3-2-0---------7----|---4----------------------------------------------3-1-0-----0--|---------------------------------------------------------------|
|
|----------------------------------------------------------------|---0-------------------------------------------------------0-0--|---0--3--1--0---------0-1---3-----0-1---0---1-0-----------------|---------------3----3-----3-----3-----3---------3-1-------------|----------------------------------------------------4-3----------

Y_enredndose_en el viento van las cintas de mi capa, y cantando_a coro dicen quireme
|--------0--0--0------------------0-------------------------------------------------0--|------0-----------4---4---2--4-------4--2---0-------0-----0--4---4---4-2--2-0----4---4|--2--------------------------------------------2--3---3-------------------------------|
|
|---------------------------------------------------------------------------------------|-----------------------------0---2---0-----------------------0---0---0-----------0--20|------2-2--2--2---0---0-----------------3---2-----0-2--0--2------------3--30----------|--3-----------------------3-------------------3----------------------------------------

nia del alma. Son las cintas de mi capa, de mi capa_estudiantil, y_un repique de

file:///C|/Archivos%20de%20programa/eMule/Incoming/_cancionero-guitarra-bandurria_(1)/CintasDeMiCapa.htm (3 de 4)01/11/2008 10:44:49 p.m.

Las cintas de mi capa

|-------------------------0--0---0-----------0--2--4--0---2-4---5----2----4-5--5-5-----|--2-0----------------0-------------4--42----------------------------------------------|-------3--3--2--2---------------------------------------------------------------------|
|
|---------------------------------------------------------------------------------------|--------------------------------------------------0--------0---2---------0-2--2-2-----|--3-2--0--0----------2---2--2---2--0--0-----2--3-----2---3---------3------------------|-------------3---3---------------------3-----------------------------------------------

campanas, y_un repique de campanas cuando yo te rondo_a ti.


|--4--2-0----0----2-4--4--4--2--0---------0--2--2--0-------0-----0--|---------------------------------4---4----------------4-------0----|-------------------------------------------------------------------|
|
|-------------------------------------------------------------------|--0----------------0--0--0--------------------------------------0--|-----3-2----2----3----------3--2-0---0---2--3--3--2---0---2---0-2--|--------------------------------------------------------------------

file:///C|/Archivos%20de%20programa/eMule/Incoming/_cancionero-guitarra-bandurria_(1)/CintasDeMiCapa.htm (4 de 4)01/11/2008 10:44:49 p.m.

Clavelitos

CLAVELITOS

(J. Valverde Sanjuan / Monreal Galindo)

Am
E7
Am
Mocita dame el clavel
E7
dame el clavel de tu boca
para eso no hay que tener
Dm E7
Am
mucha vergenza ni poca.

G7
C
yo te dar un cascabel
G7
C
te lo prometo mocita
E7
Am
si tu me das esa miel
E7
A
que llevas en la boquita.

A
Clavelitos, clavelitos,
Bbd
E7
clavelitos de mi corazn
Bm
E7
hoy te traigo, clavelitos
Bm
E7
A
colorados igual que un fresn.

A
Si algn da, clavelitos
A7
D
no lograra poderte traer,
A
F#7
no te creas que ya no te quiero
Bm
E7
A
es que no te los pude coger.

Am
E7
Am
La tarde que a media luz
E7
vi tu boquita de guinda,
yo no he visto en Santa Cruz
Dm
E7
Am
otra boquita ms linda.

G7
C
Y luego al ver el clavel
G7
C
que llevabas en el pelo
E7
Am
mirndolo cre ver
file:///C|/Archivos%20de%20programa/eMule/Incoming/_cancionero-guitarra-bandurria_(1)/Clavelitos.htm (1 de 4)01/11/2008 10:44:50 p.m.

Clavelitos

E7
A
un pedacito de cielo.

INTRODUCCIN: 60, 64, 52, 60, 64, 52, 50, 53, 42, 50, 52, 53, Dm, Mi 7, 50, 53, 42, 50,
63, 61, 60, 64, 50,
E7, 50, 53, 42, Am, Dm, E7, 50, 53, 42

CIFRADOS
|--------------------------0-3-3-2-2-00------------------------------------------------|--0-1-0-1-0---0-1-0-1-0-----------------3-3-1-0-------00-1-0-------0---0-1-0-1-0---01|------------------------------------------------3-1-3---------3-13--------------------|---------------------------------------------------------------------------------------|
|
|---------------------------------------------------------------------------------------|--------------------------0-0-1-1-1-1-1-00--------------------------------------------|--1-3-1-3-0---0-0-0-0-1---------------------3-1-0---0-1-1-3-1-0---0-1---1-3-1-3-0---00|--------------------------------------------------3------------3-----------------------

|----------0-3-3-2-2-0-0------------------------0--|--0-1-0-----------------3-3-1-0-------------0-----|--------------------------------3-1-0----1--------|--------------------------------------3-----------|
|
|----------0-0-1-1-1-1-1-0-0--------------------0--|--0-0-1---------------------3-1-0-----------1-----|----------------------------------3-2-3--3---------

Mocita dame_un clavel, dame_el clavel de tu boca. Para_eso no_hay que tener mucha
|----3-2--0--------2-0----------------------------------5--3---2------0--3-2--2--------|--0---------4------------0--0-----0-1---3--1--0-----0---------------------------4-----|-----------------------------------------------3--------------------------------------|
|
|---------------------------------------------------------------------------------------|----0-0--1--0---------------------------0--------------1--0-------------0-------0-----|--1---------------3-1----1--1-----1-3------3--1-0---0---------3------1----3--3---------

file:///C|/Archivos%20de%20programa/eMule/Incoming/_cancionero-guitarra-bandurria_(1)/Clavelitos.htm (2 de 4)01/11/2008 10:44:50 p.m.

Clavelitos

vergenza ni poca. Yo te dar_un cascabel, te lo prometo mocita, si t me das esa miel


|-----------------------------------52------------------5--2-0----------------2-------|--0---1--0-----1-0---3--3--3--3---------3----3--3---3-3--------3---0--0--0--0----4---0
|-----------3--------------------------------------------------------------------------|
|
|---------------------------------------------------------------------------------------|-----------------------------------3--1-0----0--0-------3--1-1-0------------0---0-----|--0---3--1--0--3-1---3--3--3--3---------------------3-3------------0--1--3-----3----1--

que llevas en la boquita.


|---0---3-2--5------2--2-0----|----------------4------------|-----------------------------|
|
|-------0----2---------------|---0-----4------0-----------|-------------------3--3-2----

Clavelitos, clavelitos, clavelitos de mi corazn. Hoy te traigo clavelitos colorados


|---------------0-0-0-------4-4-4-2---0---------------------------------------2-2-20---|---0-0-0-------------0------------------4--2-0---------------------4-4-40-------------|---------2-------------------------------------3----3---3---3
0------------------------|
|
|---------------------------0-00-------------------------------------------------------|---------------0-0-0-------------4--2---0--------------------------0-0-0-----4-4-42---|---2-2-2-------------2---------------------3-2-0----0---0---0--0--------0-------------|--------3------------------------------------------------------------------------------

igual que_un fresn. Si_algn d_a clavelitos no lograra poderte tra_er, no te cre_as
|-------------------------------------0-0-0-----4--4--4-2--0-0--2---4-5----5--5--5-----|-4-2------0-------------0---0---0-----------0--------------------------------------2--|----------------3-2--------------2----------------------------------------------------|
|
|------------------------------------------------0--0--

file:///C|/Archivos%20de%20programa/eMule/Incoming/_cancionero-guitarra-bandurria_(1)/Clavelitos.htm (3 de 4)01/11/2008 10:44:50 p.m.

Clavelitos

0--------------------------------|-0------------------------------------0-0-0-------------4--2-0------0-2----2--2--2----|----3-----2-----0-------2---2---2-----------2-------------------3------------------3--|------------------3--------------3-----------------------------------------------------

que ya no te quiero, es que no te los pude coger.


|---------4--4---4-----2----2--2--0-------------0----|---2--2------------0----------------4---4-2--4------|----------------------------------------------------|
|
|---------------------------------------------------|---------0--0----0---------------0--0---0----0-----|---3--3------------2--3----3--3-----------3----2---|----------------------------------------------------

file:///C|/Archivos%20de%20programa/eMule/Incoming/_cancionero-guitarra-bandurria_(1)/Clavelitos.htm (4 de 4)01/11/2008 10:44:50 p.m.

Las colombianas

LAS COLOMBIANAS (AGCHATE EL SOMBRERITO)

(Jorge ez)

D
A7
Agchate el sombrerito,
D
y por debajo mirame.
D
A7
Agchate el sombrerito,
D
y por debajo mirame.
D7
G
Y con una miradita
A7
D
di lo que quieras hablarme,
B7
Em
y con una miradita
A7
D
D7
di lo que quieras hablarme.

Que
que
que
A7
por

G A7
me voy a morir,
D B7
me muero de amor,
Em
me muero de amor,
D
D7
las colombianas.

(BIS)

D
A7
Tengo que subir, subir,
D
las aguas del Magdalena,
D
A7
tengo que subir, subir,
D
las aguas del Magdalena.
D7
G
Y llegar a Bogot
A7
D
y abrazar a mi morena,
B7
Em
y llegar a Bogot

file:///C|/Archivos%20de%20programa/eMule/Incoming/_cancionero-guitarra-bandurria_(1)/Colombianas.htm (1 de 2)01/11/2008 10:44:50 p.m.

Las colombianas

A7
D
D7
y abrazar a mi morena.

Que me voy a morir...

file:///C|/Archivos%20de%20programa/eMule/Incoming/_cancionero-guitarra-bandurria_(1)/Colombianas.htm (2 de 2)01/11/2008 10:44:50 p.m.

Como llora una estrella

COMO

LLORA

UNA

ESTRELLA

(Antonio Carrillo)

Am E7
Am
Estrella de la noche equinoccial,
A7
Dm
que brillas en la inmensidad del mar,
E7
que vagas en la noche, en soledad,
Dm
E7 Am
negndole a mi vida un amor.

Am E7
Am
Estrella de la noche t sers
A7
Dm
la compaera fiel de mi cancin,
Am
que vagas en la noche henchida de romntica ansiedad,
Dm
E7
Am
bajo la dolorosa ternura de un amor.

E7
Y mientras tu ventana puede ver,
Am
asmate a la reja y dile que
E7
mi corazn suspira por su amor,
Am
y yo me estoy muriendo de dolor.

Dm
Dile que una palabra, nada ms,
Am
que salga de sus labios podr ser,
(BIS)
E7
Am (A7 la 1 vez)
la dicha de mi vida, la felicidad.

INTRODUCCIN: 50, 52, 53, 40, 42, 43 / 50, 52, 53, 40, 43, 42 /
50, 52, 53, 52, 50, 64, 50, 52, 53, 40, 42, 43-2, 53, 50, 53, 42, 50
50, 52, 53, 40, 42, 43, 43, 42, 40, 53, 52, 50 / 50, 52,
file:///C|/Archivos%20de%20programa/eMule/Incoming/_...nero-guitarra-bandurria_(1)/ComoLloraUnaEstrella.htm (1 de 2)01/11/2008 10:44:50 p.m.

Como llora una estrella

53, 40, 43, 42 , 43, 42, 40, 53, 52, 50 / 50, 52, 53, 52, 50, 64,
50, 52, 53, 40, 42, 43-2, 53, 50, 53, 42, 50

file:///C|/Archivos%20de%20programa/eMule/Incoming/_...nero-guitarra-bandurria_(1)/ComoLloraUnaEstrella.htm (2 de 2)01/11/2008 10:44:50 p.m.

Cancion

COMO PJAROS EN EL AIRE

(Peteco Carbajal)

A
E
Las manos de mi madre
G
D A
parecen pjaros en el aire.
G
Historias de cocina
D
A
D A E
entre sus alas heridas de hambre.

A
E
Las manos de mi madre
G
D A
saben que ocurre por la maanas,
G
cuando amasa la vida
D
A
D A E
horno de barro, pan de esperanza.

A
E
Las manos de mi madre
G
D A
llegan al patio desde temprano,
G
todo se vuelve se vuelve fiesta
D
A
cuando ellas juegan junto a otros pjaros...

F
F#m
Junto a los pjaros que aman la vida,
D
C#m
y la construyen con los trabajos,
Bbd
Bm
arde la lea, harina y barro,
Dm
F#m
lo cotidiano se vuelve mgico,
B7
E
E7
se vuelve mgico, oh, oo, ooo

file:///C|/Archivos%20de%20programa/eMule/Incoming/...nero-guitarra-bandurria_(1)/ComoPajarosEnElAire.htm (1 de 2)01/11/2008 10:44:50 p.m.

Cancion

A
E
Las manos de mi madre
G
D
A
me representan un cielo abierto,
G
un recuerdo aorado,
D
A
D A E
trapos calientes en los inviernos.

A
E
Ellas se brindan clidas,
G
D A
nobles, sinceras, limpias de todo,
G
cmo sern las manos
D
A
D A E
del que las mueve gracias al odio.

Las manos de mi madre,


llegan al patio desde temprano....

file:///C|/Archivos%20de%20programa/eMule/Incoming/...nero-guitarra-bandurria_(1)/ComoPajarosEnElAire.htm (2 de 2)01/11/2008 10:44:50 p.m.

Cancion

COMPOSTELANA

(Mndez Vigo / Martnez Pinto)

Dm
Gm
Pasa la tuna en Santiago
Dm
A7
Dm
cantando muy quedo romances de amor.
Gm
Luego la noche en sus ecos
C
F
los cuela de ronda por cada balcn.

A7
Dm
Pero all en el templo del Apstol Santo
Gm
C
F
una nia llora ante su Patrn,
Gm
Dm
porque la capa del tuno que adora
A7
Dm D7
no lleva la cinta que ella le bord,
Gm
Dm
porque la capa del tuno que adora,
A7
D
no lleva la cinta que ella le bord.

D
A7
D B7
Cuando la tuna te de serenata
Em
A7
D
no te enamores compostelana,
A7
D B7
pues cada cinta que adorna mi capa
Em A7
D D7
lleva un trocito de corazn.
G
A7
D B7
Tralalaralaralara
Em
A7
D D7
no te enamores compostelana
G
A7
D B7
y deja la tuna pasar
Em
A7 D
con su tralaralara.

Dm
Gm
Hoy va la tuna de gala
Dm
A7
Dm
cantando y tocando la marcha nupcial.
Gm
Suenan campanas de gloria
C
F
que dejan desierta la universidad.

A7
D
Y all en el templo del Apstol Santo
Gm
C
F
con el estudiante hoy se va a casar
file:///C|/Archivos%20de%20programa/eMule/Incoming/_cancionero-guitarra-bandurria_(1)/Compostelana.htm (1 de 4)01/11/2008 10:44:51 p.m.

Cancion

Gm
Dm
la galleguia melosa y celosa
A7
Dm D7
que oyendo esta copla ya no llorar,
Gm
Dm
la galleguia melosa y celosa
A7
D
que oyendo esta copla ya no llorar.

CIFRADOS
Pasa la Tuna_en Santiago cantando muy quedo romances de_amor
|--0-1-0--------0-------0----------1-----0--1--0-------0---------------------0-10------|--------3-1-0----1--------1----------3-----------3------1--1-3--0----0------------3-10|--------------------3----------3---------------------------------------3--------------|
|
|---------------------------------------------------------------------------------------|--1-3-1-0------1-------1----------3--0--1--3--1--0----1------0--------------1-3-10----|----------3-2----3--------3-----------------------------3--3----3----2--3-----------32|--------------------3---------3--------------------------------------------------------

Luego la noche_en sus ecos los cuela de ronda en cada balcn. Pero_all_en el templo
|---0-------0-----------1-----0---1--0--1--3--3-3---5-3--1-0---------------------------|-----1---------1---------3--------------------------------------1--1----1---3---1--0--|--------3----------3------------------------------------------------------------------|
|
|------------------------------------------0--0-0---10---------------------------------|--1--------1-----------3-0---1---3--1--3----------------3--1---------------0----------|-----3---------3------------------------------------------------3--3----3-------3--2--|--------3----------3-------------------------------------------------------------------

del Apostol Santo


una nia llora ante su patrn. Porque la capa del tuno
|----------------0-----------0--0-0--0-1---0------0--1--3--0----3---3--3--3-1------31--|--1-3---3--3-3------3--1--3-----------------3-3------------------------------3--------|---------------------------------------------------------------------------------------|
|
|-------------------------------------------------------0-------0---0--0--0--------

file:///C|/Archivos%20de%20programa/eMule/Incoming/_cancionero-guitarra-bandurria_(1)/Compostelana.htm (2 de 4)01/11/2008 10:44:51 p.m.

Cancion

0----|----0---0--0-0--1---0-----0-1--1-1--13---1-0-0--1--3-----1----------------3--0----3--|--3-------------------3----------------------------------------------------------------

que_adora no lleva la cinta que_ella le bord, porque la capa del tuno que_adora no
|-------1-0------1-0-----0-------0------------0---3---3--3--3-1------3-1-------10------|----3-------1--------1-----3--------3--1--3---------------------3----------3------1---|---------------------------------------------------------------------------------------|
|
|-------------------------------------------------0---0--0--0-------0------------------|----0--3-1------3-1-----1--0----1---0-----0--1---------------3--0-----3----0--31------|------------3--------3-----------------3------------------------------------------3----

lleva la cinta que_ella le bord.


|---1-0-----0-------0-----------------0-0-0-0-0--|--------1-----3--------3--1--0------2-2-2-2-2--|--------------------------------3----3-3-3-3-3--|
|
|-------------------------------------0-0-0-0-0--|---3-1-----1--0----1---0------------2-2-2-2-2--|--------3-----------------3--2--3----3-3-3-3-3---

Cuando la Tuna te de serenata no te_enamores compostelana. Que cada cinta que_adorna


|------------0-0--0--0----0---0--0---0----0-------------2-0------------0--0----0-0-----|---------2-------------4-------------------3---3--2--3-------------2---------------4--|--3---3-------------------------------------------------------3-3---------------------|
|
|---------------------------------------------------------------------------------------|------------2-2--2--2--1-2-3-2--2---2--3-2-0---0-----0-3-2------------2--2----2--2-1--|---------3----------------------------------------3---------------3-------------------|--0---3-------------------------------------------------------0-3----------------------

mi capa lleva_un trocito de corazn.


Tra la ra la la la ra la, no te_enamores
|--0--2-0---0--0-----2-0---------------0------------5--4--5--7--5--2--0---0---0--20----|------------------------3--3--2-0---2---2------------------------------------------3--|----------------------------------3-------3----3---------------------------------------

file:///C|/Archivos%20de%20programa/eMule/Incoming/_cancionero-guitarra-bandurria_(1)/Compostelana.htm (3 de 4)01/11/2008 10:44:51 p.m.

Cancion

|
|
|-----------------------------------------------------------0--------------------------|--2--3-2---2--2-----3-2-0--0-----------------------3--2--3-----3--0--2---2---2--3-20--|------------------------------3-2-3-3-2-3-3----3---------------------------------------

compostelana. Y deja la Tuna pasar con su tra la ra la ra, con su tra la ra la ra


|----------2-0-----5-4--5--7-5--2-0---0---2---0---------------0---2--0-----------------|--3--2--3---------------------------------------3--2--0-----------------3--2-0--------|---------------3-----------------------------------------3----------------------3-----|
|
|-------------------------0------------------------------------------------------------|--0-----0-3-2-----3-2--3----3--0-2---2---3---2--0------------2---3---2-0--------------|-----3---------3-----------------------------------3--2--3-----------------3--2-3------

con su tra la ra la ra.


|--0---2---0--0--2--4--5---|--------------------------|--------------------------|
|
|--------------------------|--2---3---2--0------------|----------------3--2--3----

file:///C|/Archivos%20de%20programa/eMule/Incoming/_cancionero-guitarra-bandurria_(1)/Compostelana.htm (4 de 4)01/11/2008 10:44:51 p.m.

Construccion Acordes

CONSTRUCCIN DE ACORDES
El mtodo siguiente permite conocer las notas que componen cualquier acorde de los que aparecen
en el cancionero. Es sencillo y la nica exigencia es conocer la afinacin del instrumento en cuestin.
Al igual que el cancionero, se emplea la notacin americana, que vuelvo a reproducir:

C - Do

D - Re

E - Mi

F - Fa

G - Sol

A - La

B - Si

1 2b

3b

5b

6b

7b

C#

D#

G#

A#

D#

F#

G#

A#

C#

F#

G#

A#

C#

D#

F#

G#

A#

C#

D#

G#

A#

C#

D#

F#

A#

C#

D#

F#

G#

C#

D#

F#

G#

A#

MAYORES
1 - 3 - 5

MENORES (m)
1 - 3b - 5

MAYOR SPTIMA (7)


1 - 3 - 5 - 7b

MENOR SPTIMA (m7)


1 - 3b - 5 - 7b

SPTIMA MAYOR (7M)


1 - 3 - 5 - 7

DISMINUIDO (d)
1 - 3b - 5b - 7bb (=6)

Veamos un ejemplo: Determinar las notas que corresponden al acorde Re menor 7 (Dm7)
Buscamos en la primera tabla la fila que corresponde a Re (D). Tomamos la columna etiquetada
con 1, la 3b, la 5 y la 7b.
Obtenemos as que las notas que componen dicho acorde son: D - F - A - C. Tan solo resta
transportarlas al instrumento.

file:///C|/Archivos%20de%20programa/eMule/Incoming/_...onero-guitarra-bandurria_(1)/ConstruccionAcordes.htm (1 de 2)01/11/2008 10:44:51 p.m.

Construccion Acordes

Volver a la pgina principal

file:///C|/Archivos%20de%20programa/eMule/Incoming/_...onero-guitarra-bandurria_(1)/ConstruccionAcordes.htm (2 de 2)01/11/2008 10:44:51 p.m.

Cancion

CONTIGO APREND

(A. Manzanero)

A
C#7
Contigo aprend que existen nuevas y mejores emociones,
F#m
Em
contigo aprend a conocer un mundo nuevo de ilusiones.
D
E7
A
Aprend, que la semana tiene ms de siete das,
F#7
Bm
a hacer mayores mi contadas alegras,
E7
y a ser dichoso yo contigo lo aprend.

A
C#7
Contigo aprend a ver la luz del otro lado de la Luna,
F#m
Em
contigo aprend que tu presencia no la cambio por ninguna.
D
E7
A
Aprend, que puede un beso ser ms dulce y ms profundo,
F#7
Bm
que puedo irme maana mismo de este mundo,
E7
A / G / F#7
las cosas buenas ya contigo las viv.

F#7
Bm
Dm
E7
A
Y contigo aprend, que yo nac el da en que te conoc.

file:///C|/Archivos%20de%20programa/eMule/Incoming/_cancionero-guitarra-bandurria_(1)/ContigoAprendi.htm01/11/2008 10:44:51 p.m.

Cancion

CONTIGO EN LA DISTANCIA

(Cesar Portillo de la Cruz)

Em
A7
DM7
No existe un momento del da
Em
A7
DM7
en que pueda apartarme de ti.
F#7
Bm
El mundo parece distinto
B7
E7 Bbd A7
cuando no ests junto a m......

Em A7
No hay bella meloda
D Em F#m
en que no surjas t.
Fm
Em
A7
Y no quiero escucharla
D F#7
si no la escuchas t.

Es
en
ya
si

F#7
Bm C#7
que te has convertido
F#m
parte de mi alma
B7
Em
A7
nada me conforma
D
no ests t tambin.

B7
Em
A7
Ms all de tus labios,
D Em F#m
del Sol y las estrellaaas,
Fm
Em
contigo en la distancia,
A7
D (Final: C / A#7 / A7)
amada ma, estoy.

file:///C|/Archivos%20de%20programa/eMule/Incoming/_cancionero-guitarra-bandurria_(1)/ContigoEnLaDistancia.htm01/11/2008 10:44:51 p.m.

Corazn, corazn

CORAZN, CORAZN

(Jos Alfredo Jimnez)

Dm
A7
Dm
Es intil dejar de quererte,
A7
yo no puedo vivir sin tu amor.
No me digas que voy a perderte,
Gm
A7
Dm
no me quieras matar corazn.

Dm
A7
Dm
Yo qu diera por no recordarte,
D7
Gm
yo qu diera por no ser de ti,
Dm
pero el da en que te dije 'te quiero',
A7
Dm
te di mi cario y no supe de m.

A7
Dm
Corazn (corazn), corazn (corazn),
A7
Dm (D en la 2)
no me quieras matar corazn.

(BIS)

D
Si has pensado cambiar tu destino
Ebd
Em
recuerda el camino donde te encontr.
A7
Em
Si has pensado en dejar mi cario
A7
D
recuerda un poquito quien te hizo mujer.

D
Si despus de sentir tu pasado
D7
Gm
me miras de frente y me dices adis,
Dm
te dir con el alma en la mano
file:///C|/Archivos%20de%20programa/eMule/Incoming/_cancionero-guitarra-bandurria_(1)/CorazonCorazon.htm (1 de 2)01/11/2008 10:44:51 p.m.

Corazn, corazn

A7
Dm
que puedes quedarte porque yo me voy.

Corazn (corazn), corazn (corazn)...

file:///C|/Archivos%20de%20programa/eMule/Incoming/_cancionero-guitarra-bandurria_(1)/CorazonCorazon.htm (2 de 2)01/11/2008 10:44:51 p.m.

Cuando fu a Covadonga

CUANDO FUI A COVADONGA

D
A7 D
Cuando fui a Covadonga
G A7
volv con desilusioon,
G
A7 D
pues me dijo la Santina
B7
Em A7
D
que no me tienes nada de amor.

D
A7 D
Como puedes comprendeeer
G A7
traigo el corazn partido,
G
A7 D
todo lo que te rondee,
B7
Em A7
D
morena mia, tiempo perdido.
G
A7 D
todo lo que te rondee,
B7
Em A7
D
morena mia, tiempo perdido.

D
A7
Ven morena ven, bailemos a la gaita,
G
A7
D
ven morena ven, bailemos al tambor,
D
A7
que aunque no me quieras todo puede arreglarse,
G
A7
D
pues la virgen dijo "no le guardes rencor",
B7
Em
A7
D
bailemos a la gaita, bailemos al tambor,
B7
Em
A7
D
bailemos a la gaita, bailemos al tambor.

D
A7 D
Hoy vuelvo de Covadonga,
G A7
traigo alegre el corazoon,

file:///C|/Archivos%20de%20programa/eMule/Incoming/...nero-guitarra-bandurria_(1)/CuandoFuiACovadonga.htm (1 de 2)01/11/2008 10:44:52 p.m.

Cuando fu a Covadonga

G
A7 D
pues me dijo la Santina
B7
Em A7
D
que ya me tienes algo de amor.

D
A7 D
Doy gracias a la seora
G A7
del consejo que me dioooo,
G
A7 D
que aunque t no me quisieras,
B7
Em A7
D
no te guardara ningn rencor.
G
A7 D
que aunque t no me quisieras,
B7
Em A7
D
no te guardara ningn rencor.

Ven morena ven. . .

file:///C|/Archivos%20de%20programa/eMule/Incoming/...nero-guitarra-bandurria_(1)/CuandoFuiACovadonga.htm (2 de 2)01/11/2008 10:44:52 p.m.

Cu cu rr cu cu Paloma

CU CU RRU CU C, PALOMA

(Toms Mndez)

C
C7
Dicen que por las noches no ms se le iba en puro llorar,
F
dicen que no coma no ms se le iba en puro tomar,
G7
C
juran que el mismo cielo se estremeca al or su llanto,
G7
C
como sufri por ella que hasta en su muerte la fue llamando.

G7
Ay, ay, ay, ay, ay, cantaba,
C
ay, ay, ay, ay, ay, gema.
G7
Ay, ay, ay, ay, ay, cantaba,
C
de pasin mortal mora.

C
C7
Que una paloma triste muy de maana le va a cantar,
F
a la casita sola con las puertitas de par en par,
G7
C
juran que esa paloma no es otra cosa que su alma,
G7
C
que todava lo espera a que regrese la desdichada.

G7
Cu cu rru cu c, paloma,
C
cu cu rru cu c, no llores,
G7
las piedras jams, paloma,
C
que van a saber de amores.

Cu

C C7
cu rru cu c,

file:///C|/Archivos%20de%20programa/eMule/Incoming/_...cionero-guitarra-bandurria_(1)/CucurrucucuPaloma.htm (1 de 2)01/11/2008 10:44:52 p.m.

Cu cu rr cu cu Paloma

F
cu cu rru cu c,
G7
cu cu rru cu c,
C
paloma ya no llores.

file:///C|/Archivos%20de%20programa/eMule/Incoming/_...cionero-guitarra-bandurria_(1)/CucurrucucuPaloma.htm (2 de 2)01/11/2008 10:44:52 p.m.

Despierta

DESPIERTA

(Gabriel Ruz / Luna de la Fuente)

D
A7
Despierta, dulce amor de mi vida
Em
A7
D
despierta, si te encuentras dormida.
Ebd
A7
Escucha mi voz vibrar bajo tu ventana
Em
A7
D
con esta cancin te vengo a entregar el alma.

D
D7
G
Perdona si interrumpo tu sueo
D
Em
A7
pero no pude ms y esta noche te vengo a decir
D
te quiero.

file:///C|/Archivos%20de%20programa/eMule/Incoming/_cancionero-guitarra-bandurria_(1)/Despierta.htm01/11/2008 10:44:52 p.m.

El da que me quieras

EL DIA QUE ME QUIERAS

(Carlos Gardel / Alfredo Lepera)

D
Ebd
A7
Acaricia mi ensueo el suave murmullo de tu suspirar.
F#7
Bm
E7
A7
Cmo re la vida si tus ojos negros me quieren mirar.
D
B7
C#7
F#m
Y si es mo el amparo de tu risa leve que es como un cantar,
F#7
B7
E7
G Gm A7
ella aquieta mi herida, todo, todo se olviiiiida.

D
F#7
El da que me quieras
Bm D7
la rosa se engalana
G
B7
se vestir de fiesta
Em
con su mejor color.

A7
F#7
Y al viento las campanas
Bm
dirn que ya eres ma,
F#m E7
y locas las fontanas
A7 50 52 53 54 A7
se contarn tu amor.

D
F#7
La noche que me quieras
Bm
D7
desde el azul de cielo,
G
B7
las estrellas celosas
Em
nos mirarn pasar.

F#7 B7
Y un rayo misterioso
file:///C|/Archivos%20de%20programa/eMule/Incoming/_cancionero-guitarra-bandurria_(1)/DiaQueMeQuieras.htm (1 de 2)01/11/2008 10:44:52 p.m.

El da que me quieras

Em
60 62 63 Gm
har nido en tu pelo,
D
lucirnaga curiosa
F#m
Em
A7 D
que ver que eres mi consuelo.

El da que me quieras no habr ms que armonas,


ser clara la aurora y alegre el manantial.
Traer quieta la brisa rumor de melodas,
y nos darn las fuentes su canto de cristal.

El da que me quieras
endulzar sus cuerdas el pjaro cantor,
florecer la vida, no existir el dolor.

file:///C|/Archivos%20de%20programa/eMule/Incoming/_cancionero-guitarra-bandurria_(1)/DiaQueMeQuieras.htm (2 de 2)01/11/2008 10:44:52 p.m.

Don Gato

DON GATO

(Popular)

D
A7 D G
D
Estaba el seor Don Gato sentadito en su tejado,
A7 D
marrama miau, miau, miau, sentadito en su tejado.

D
A7 D
G
D
Ha recibido una carta, que si quiere ser casado,
A7 D
marrama miau, miau, miau, que si quiere ser casado.

D
A7 D
G
D
Con una gatita blanca, sobrina de un gato pardo,
A7 D
marrama miau, miau, miau, sobrina de un gato pardo.

D
A7 D 40 42 43 Gm
Dm
Con la emocin de la carta,
se ha caido del tejado,
A7 Dm
marrama miau, miau, miau, se ha cado del tejado.

Dm
A7 Dm 40 42 43 Gm
Dm
Se ha roto siete costillas,
el espinazo y el rabo,
A7 Dm
marrama miau, miau, miau, el espinazo y el rabo.

Dm
A7 Dm 40 42 43 Gm
Dm
Ya lo llevan a enterraaar,
por la calle del pescado,
A7 Dm
marrama miau, miau, miau, por la calle del pescado.

D
A7 D
G
D
Al olor de las sardinas, Don Gato ha resucitado,
A7 D
marrama miau, miau, miau, Don Gato ha resucitado.

D
A7 D
G
D
Por eso dice la gente, siete vidas tiene un gato,
A7 D
marrama miau, miau, miau, siete vidas tiene un gato.

(BIS)

file:///C|/Archivos%20de%20programa/eMule/Incoming/_cancionero-guitarra-bandurria_(1)/DonGato.htm (1 de 4)01/11/2008 10:44:53 p.m.

Don Gato

CIFRADOS
Estaba_el seor Don Gato,
sentadito_en su tejado marrama miau,
miau, miau
|-0-----0------0--------------------2----2-------2--4-0-0----------0----0-----0--------|----2-------2-----2---0-------0-2-----3----3--------------3--2-3--2----2-----2--------|------------------------3---3-------------------------------------3----3-----3--------|
|
|---------------------------------------------------0--------------0----0-----0--------|-2-----2------2---------------0-2--3--0-3--0----3----2-2--0----0--2----2-----2--------|----3-------3-----3---2-3---3--------------------------------3----3----3-----3---------

sentadito_en su tejado.
|--0--2-0--2----0----------|------------------2-0-----|----------------------3---|
|
|--------------------------|--2--3-2--3----2----------|------------------3-2-3----

. . .

Con la_emocin de la carta,


se_ha ca_do del tejado, marrama miau,
miau, miau
|--0-------0------0-------------------1------1----1---3-0-0------------0---0-----0-----|-------2-----2------2--0-------0-1--------3---3--------------3--1-3---1---1-----1-----|--------------------------3--3----------------------------------------3---3-----3-----|
|
|-----------------------------------------------------0----------------0---0-----0-----|--2-------2------2-------------0-1---3----0-3-0--3-----1-1------------1---1-----1-----file:///C|/Archivos%20de%20programa/eMule/Incoming/_cancionero-guitarra-bandurria_(1)/DonGato.htm (2 de 4)01/11/2008 10:44:53 p.m.

Don Gato

|-------3-----3------3--2--3--3-------------------------------0----0---3---3-----3-----|---------------------------------------------------------------3-----------------------

se_ha ca_do del tejado. Ya lo llevan a_enterra_ar,


por la calle del
pescado
|---0----1-0-1--0-----------0------0-----0------------------1------1-----1--3--0-0-----|-------------------1-0--------1-----1-------1--0------0-1------3----3-----------------|-----------------------3-------------------------3-3----------------------------------|
|
|---------------------------------------------------------------------------0----------|---1----3-1-3--1-----------1------1-----1-------------0-1--3---0--3--0-3------1-1-----|-------------------3-2-3------3-----3-------3--2-3-3-----------------------------------

marrama miau, miau, miau, por la calle del pescado.


|----------0-----0-----0-----0---1--0--1--0------------|--3--1-3--1-----1-----1----------------------1--0-----|----------3-----3-----3---------------------------3---|
|
|----------0-----0-----0-------------------------------|--0----0--1-----1-----1-----1---3--1--3--1------------|-----3----3-----3-----3----------------------3--2-3----

Al olor de las sardinas


Don Gato_ha resucitado marrama miau, miau,
miau
|-0----0------0--------------------2------2------2-4-0-0----------0----0-----0---------|----2-----2------2--0-------0-2-------3-------3----------3--2-3--2----2-----2---------|----------------------3---3--------------------------------------3----3-----3---------|
|
|--------------------------------------------------0--------------0----0-----0--------|-2-----2-----2---------------0-2--3---0--3--0---3---2-2--0----0--2-----

file:///C|/Archivos%20de%20programa/eMule/Incoming/_cancionero-guitarra-bandurria_(1)/DonGato.htm (3 de 4)01/11/2008 10:44:53 p.m.

Don Gato

2-----2--------|----3-----3------3--2-3---3---------------------------------3----3----3-----3---------

Don Gato_ha resucitado.


|--0---2--0----2-0---------|------------------2-0-----|----------------------3---|
|
|---------------------------|--2---3-2--3----2----------|------------------3-2-3-----

Por eso dice la gente


siete vidas tiene_un gato marrama miau,
miau, miau
|--0----0----0--------------------2-----2-----2---4----0-0----------0----0-----0-------|-----2----2----2--0--------0-2------3----3-----------------3--2-3--2----2-----2-------|---------------------3---3-----------------------------------------3----3-----3-------|
|
|-------------------------------------------------0-----------------0----0-----0-------|--2----2----2---------------0-2--3--0--3--0--3--------2-2--0----0--2----2-----2-------|-----3----3----3--2--3---3------------------------------------3----3----3-----3--------

siete vidas tiene_un gato.


(2) tiene_un gato.
|--0--2--0-2---0----------------0---4----4-5---|------------------2----0----------------------|-------------------------3--------------------|
|
|----------------------------------------------|--2--3--2-3---2----------------2--------------|------------------3----2-3---------3----2-3----

file:///C|/Archivos%20de%20programa/eMule/Incoming/_cancionero-guitarra-bandurria_(1)/DonGato.htm (4 de 4)01/11/2008 10:44:53 p.m.

Dos cruces

DOS CRUCES

(Carmelo Larrea)

E7
Am
A7
Sevilla tuvo que ser, con su lunita plateada,
Dm B7
E7
testigo de nuestro amor bajo la noche callada.

E7
Am
Dm
Y nos quisimos tu y yo con un amor sin pecado,
Am
B7
E7
A
pero el destino ha querido que vivamos separados.

Estn clavadas
por dos amores
Estn clavadas
por dos amores

A#
A
E7
dos cruces en el monte del olvido,
A
E7
A
que han muerto sin haberse comprendido.
A#
A
E7
dos cruces en el monte del olvido,
A
Bm7
E7
A
que han muerto, que son el tuyo y el mo.

E7
Am
A7
Ay, barrio de Santa Cruz, Oh, plaza de Doa Elvira!,
Dm B7
E7
hoy vuelvo yo a recordar y me parece mentira.

E7
Am
Dm
Y todo aquello acab, todo qued en el olvido,
Am
B7 E7
A
nuestras promesas de amores en el aire se han perdido.

Estn clavadas dos cruces ...

file:///C|/Archivos%20de%20programa/eMule/Incoming/_cancionero-guitarra-bandurria_(1)/DosCruces.htm01/11/2008 10:44:53 p.m.

Dos palomitas

DOS PALOMITAS

(Popular)

Em
G
C D7 G
Dos palomitas se lamentaban llorando,
Em
G B7 Em
una a la otra se consolaban diciendo.
Em
G
C D7 G
Quien te ha cortado tus bellas alas paloma,
Em
G B7 Em
algn falsario ha sorprendido tu vuelo.

C
D7 G
C D7 G
Ay, ay, ay! Paloma.
Em
G B7 Em
algn falsario ha sorprendido tu vuelo.

CIFRADOS
Dos palomitas se lamentaban llorando una_a la otra se consolaban diciendo. Quien te_ha
|------------0---2--2-0--2-2----7-5--2-2--7---5-2--0------------0---2-6--7-------------|--3---3-2-3------------------------------------------3--3--2-3----------------3----3--|---------------------------------------------------------------------------------------|
|
|-------------------------------3-2-------3--2-----------------------------------------|--0---0---0-2---3--3-2--3-3---------3-3--------3--2--0--0----0-2---3-2---0----0----0--|--------4-------------------------------------------------4----------------------------

cortado tus bellas alas paloma algn falsario ha sorprendido tu vuelo. Ay ay ay paloma
|-------0--2---2--0--2-2---7-5-2-2--7---5--2-0---------------0--2--6--7--7--5--2---7-52|--2--3------------------------------------------3--3---2-3----------------------------|---------------------------------------------------------------------------------------|
|
|--------------------------3-2------3---2--------------------------------3--2------32--|-----0-2--3---3--2--3-3-------3-3---------3-2---0--0------0-2--3--2--0--------3------3|--4---------------------------------------------------4--------------------------------

algn falsario ha sorprendido tu vuelo.


|-2--7---5--2-0---------------0--2--6--7---file:///C|/Archivos%20de%20programa/eMule/Incoming/_cancionero-guitarra-bandurria_(1)/DosPalomitas.htm (1 de 2)01/11/2008 10:44:53 p.m.

Dos palomitas

|-----------------3--3---2--3--------------|------------------------------------------|
|
|----3---2---------------------------------|-3---------3-2---0--0------0-2--3--2--3---|------------------------4------------------

file:///C|/Archivos%20de%20programa/eMule/Incoming/_cancionero-guitarra-bandurria_(1)/DosPalomitas.htm (2 de 2)01/11/2008 10:44:53 p.m.

Las dos puntas

LAS DOS PUNTAS

(Osvaldo Rocha / C. Montbrun Ocampo)

C
G7
Cuando pa Chile me voy
C
cruzando la cordillera,
A7
Dm
late el corazn contento
G7
C
una Chilena me espera.

C
G7
Y cuando vuelvo de Chile
C
entre cerros y quebradas
A7
Dm
late el corazn contento
G7
C
pues me espera una cuyana.

D7
G
Viva la chicha y el vino
D7
G
G F# F
viva la cueca y la zamba.
C
Dos puntas tiene el camino
G7
C
y en las dos alguien me aguarda.

C
G7
Yo bailo la cueca en Chile
C
y en Cuyo bailo la zamba.
A7
Dm
En Chile con las chilenas,
G7
C
y con la otra en Calingasta

C
G7
Vida triste, vida alegre,
file:///C|/Archivos%20de%20programa/eMule/Incoming/_cancionero-guitarra-bandurria_(1)/DosPuntas.htm (1 de 2)01/11/2008 10:44:53 p.m.

Las dos puntas

C
es la vida del arriero.
A7
Dm
Penitas en el camino,
G7
C
risas al fin del sendero.

INTRODUCCIN:

G7 / C / G7 / C / G7 / C

(bis)

file:///C|/Archivos%20de%20programa/eMule/Incoming/_cancionero-guitarra-bandurria_(1)/DosPuntas.htm (2 de 2)01/11/2008 10:44:53 p.m.

Ella

ELLA

(Jos Alfredo Jimnez)

E7
A
Me cans de rogarle
me cans de decirle que yo sin ella
Bbd
E7
de pena muero.
Y no quiso escucharme,
si sus labios se abrieron fue pa decirme
A
ya no te quiero.

E7
A
Yo sent que mi vida
se perda en un abismo profundo y negro
A7
D
como mi suerte,
E7
A
quise hallar el olvido al estilo Jalisco,
F#7
Bm
E7
pero aquellos mariachis y aquel tequila
A
me hicieron llorar.

E7
A
Me cans de rogarle,
con el llanto en los ojos, alc mi copa
Bbd
E7
y brind por ella,
no poda despreciarme
era el ltimo brindis de un bohemio
A
por una reina.

file:///C|/Archivos%20de%20programa/eMule/Incoming/_cancionero-guitarra-bandurria_(1)/Ella.htm (1 de 2)01/11/2008 10:44:53 p.m.

Ella

E7
A
Los mariachis callaron
de mi mano sin fuerza cay mi copa
A7
D
sin darme cuenta,
E7
A
ella quiso quedarse cuando vio mi tristeza,
F#7
Bm
E7
pero ya estaba escrito que aquella noche
A
perdiera su amor.

file:///C|/Archivos%20de%20programa/eMule/Incoming/_cancionero-guitarra-bandurria_(1)/Ella.htm (2 de 2)01/11/2008 10:44:53 p.m.

Elsa

ELSA

(Manuel Prez Ruiz, Tuna de Econmicas de Sevilla)

C
D7
G
Sonaron en la noche acordes de guitarra y dulces canciones.
C
D7
G
Saliste a la ventana y pude ver tu cara, cubierta de ilusiones.
C
D7
Y al ver tus bellos ojos y al ver tu bello rostro
G
Em
las estrellas dijeron tu nombre a los luceros
Am
D7
G
(2) (53 52 51 63)
no aguanto ni contengo decir tu nombre al viento y repetir sin fin.

63 50 52

C
D7
Elsa
(con mi cancin)
G
Em
repite tu nombre el juglar (hoy te vengo a decir)
Am
D7
y un fuerte latido al sonar (este sueo de amor que)
G
ahoga su corazn
(palpita en mi corazn)

63 50 52

C
D7
Elsa
G
Em
canto tu nombre al trovar
Am
D7
y vuelve a sentir el sonar
G 53 52 50 63
de mi corazn

C
D7
G
Una cinta me diste bordada con tus manos con todo el sentimiento,
C
D7
G
ya la luce mi capa, ya la llevo grabada a fuego aqu en mi pecho.
C
D7
Y aquello que bordaste, todo ser verdad
G
Em
siempre te rondar mientras tenga cantar
Am
D7
G

file:///C|/Archivos%20de%20programa/eMule/Incoming/_cancionero-guitarra-bandurria_(1)/Elsa.htm (1 de 2)01/11/2008 10:44:54 p.m.

Elsa

al cielo cantar tu nombre al mirar tu cinta volar.

C
D7
Y vers a este tuno de nuevo en tu ventana
G
Em
oirs estas canciones que hace tiempo cantaba
Am
D7
dir tu nombre el viento repitiendo sin cesar,
tu nombre,

63 50 52

C
D7
Elsa
G
Em
canto tu nombre al trovar
Am
D7
G
y vuelve a sentir el sonar de mi corazn
C
G
en mis sueos de amor.

(Elsa soy tu cantor)

file:///C|/Archivos%20de%20programa/eMule/Incoming/_cancionero-guitarra-bandurria_(1)/Elsa.htm (2 de 2)01/11/2008 10:44:54 p.m.

En tinieblas

EN TINIEBLAS

(Alfredo Snchez-Celaya del Pozo, Alf, Tuna de


Econmicas de Zaragoza)

En tinieblas te cantar,

|
|
|
| CAPELLA
|
|
|

en tinieblas te besar,
en tinieblas ser tu amor de juventud
y por la maana partir.

Bm
Em
Entre tinieblas bajo tu casa,
A7
D
te espero inquieto con emocin,
G
F#
una mirada, una palabra
Bm
y una escala a tu corazn.

Bm
Em
Como testigo el cielo raso,
A7
D
y las estrellas como comps,
G
F#
esos cantares nunca cantados
Bm
que solo buscan quien escuchar.

A7
Suave es la luz
A7
y la luna espa
F#
El amanecer nos
Em
y el da celoso

Em
( Em

D
en tu ventanal,
D
tu constante cavilar.
Bm
sorprender
F#
Bm
te viene a contemplar.

B7
B7

file:///C|/Archivos%20de%20programa/eMule/Incoming/_cancionero-guitarra-bandurria_(1)/EnTinieblas.htm (1 de 2)01/11/2008 10:44:54 p.m.

En tinieblas

En tinieblas te cantar,
(
esperndote, )
Em
(
Em
En tinieblas te besar,
(
aguardndote, )
E7
Am (
E7
Am )
En tinieblas ser tu amor de juventud (
que se va, )
Em
F#
B7
(
(Final: Em B7 Em)
Maana por ti regresar.
(

Dame un beso amor que estoy

)
hireme pasin que estoy

djate rondar por esta tuna


Em

djate rondar por esta tuna que se va,


maana por ti regresar.

B7

maana por ti regresar. )

Dame un beso amor que estoy esperndote,


hireme pasin que estoy aguardndote,

F#

|
|
|
| CAPELLA
|
|
|

En tinieblas...

file:///C|/Archivos%20de%20programa/eMule/Incoming/_cancionero-guitarra-bandurria_(1)/EnTinieblas.htm (2 de 2)01/11/2008 10:44:54 p.m.

Entre sonrisas y flores

ENTRE SONRISAS Y FLORES (Tuna Granadina)

(Hnos. Herrera /

Antiolo y Velasco)

Am
Entre sonrisas y flores,
E7
y alegra de cancin,
Am
E7
suenan notas de colores,
Am
en un aire de bordn.

G
Y un mar de negro y de golas
F
C
se agitan sonoras brillando en el cielo.
F
Y sus notas son la olas
Dm
E7
que en dulces lamentos parecen decir:

A
Es la Tuna de Industriales,
Bbd
Bm
de la tierra de Pelayo, ya est aqu.
E7
Hoy le canta ingeniera,
Bm
E7
A
a la nia ms bonita y ms gentil.

Quiero sentir la emocin,


A7
Dm
que produce tu mirar,
A
F#
Bm
y darte mi corazn, y darte mi corazn,
E7
A
junto con este cantar.

file:///C|/Archivos%20de%20programa/eMule/Incoming/_...nero-guitarra-bandurria_(1)/EntreSonrisasYFlores.htm (1 de 2)01/11/2008 10:44:54 p.m.

Entre sonrisas y flores

INTRODUCCIN: 42, 40, 42, 43, 30, 43, 42, 40, 53, 52, 50, 64, 50 E
(BIS) Am, G, F, E

Letra original (Tuna de Distrito de Granada, 1946)


Entre sonrisas y flores
y alegras de cancin,
vuelan cintas de colores
en un aire de bordn.
Un mar de negro y de golas
se agita sonoro, vibrante en el viento,
y sus notas son las olas
que en dulce lamento
parecen decir,
Soy la Tuna de Granada,
de la tierra de la Alhambra y el Genil,
la que canta su balada
a la nia ms bonita y gentil.
Quiero sentir la emocin
que produce tu mirar,
y darte mi corazn,
y darte mi corazn
junto con este cantar.

file:///C|/Archivos%20de%20programa/eMule/Incoming/_...nero-guitarra-bandurria_(1)/EntreSonrisasYFlores.htm (2 de 2)01/11/2008 10:44:54 p.m.

Envidia

ENVIDIA

(Hnos. Garca Segura)

Dm
A7
Dm
A7
Envidia, tengo envidia de los valles,
Dm
D7
de los montes y los ros,
Gm C7
F
de los pueeblos y las calles
Gm
A7
que has cruzado t sin m.

Dm
A7
Dm
A7
Envidia, tengo envidia de tus cosas,
Dm
D7
tengo envidia de tu sombra,
Gm C7
F
de tu caaasa y de tus rosas,
Gm
A7
porque estn cerca de ti.

Dm
D7
Gm
Y mira si es grande mi amor,
E7
que cuando digo tu nombre,
Dm
A7
tengo envidia de mi voz.

Dm
A7
Dm
A7
Envidia, tengo envidia del pauelo,
Dm
D7
que una vez sec tu llanto,
Gm C7
F
y es que yo
te quiero tanto,
Gm
A7
Dm
que mi envidia es tan solo amor.

Gm
Dm
Envidia, envidia,
A7
tengo envidia
file:///C|/Archivos%20de%20programa/eMule/Incoming/_cancionero-guitarra-bandurria_(1)/Envidia.htm (1 de 2)01/11/2008 10:44:54 p.m.

Envidia

Dm Gm Dm
y es de tanto amoooooor.

file:///C|/Archivos%20de%20programa/eMule/Incoming/_cancionero-guitarra-bandurria_(1)/Envidia.htm (2 de 2)01/11/2008 10:44:54 p.m.

Espaola

ESPAOLA

Am
Espaola
G
dame un abrazo de hermano
F
con sabor venezolano
E7
para yo decir tu nombre.

Am
Espaola
G
maracas y castauelas
F
que repican Venezuela
E7
cuando yo te digo... ole!

E7
Oye mi canto (oye mi canto)
Am
que es tropical (que es tropical)
E7
yo te lo traigo (yo te lo traigo)
Am
de mi lugar (de mi lugar).

E7
Oye mi canto (oye mi canto)
Am
que es para ti (que es para ti)
E7
que all en Espaa (que all en Espaa)
Am
se canta as.
Am
G
F
E7
Con el lailalailalai lalalalalai lalailalai lalalalalai ......

file:///C|/Archivos%20de%20programa/eMule/Incoming/_cancionero-guitarra-bandurria_(1)/Espaola.htm01/11/2008 10:44:54 p.m.

Espinita

ESPINITA

(Nico Jimnez)

G
Bm7 Bbm7 Am7
Suave que me ests ma...tando,
D7
G
que ests acabando con mi juventud.
D7
Yo quisiera haberte sido infiel,
G
y pagarte con una traicin.

G
Bm7 Bbm7 Am7
Eres como una espi...nita
D7
G G7
que se me ha clavado en el corazn.
C
D7
G
Suave que me ests sangrando,
D7
G
que me ests matando de pasin.

Gm
Yo que sufro por mi gusto
G7
Cm
este cruel martirio que me da tu amor,
D7
no me importa lo que me hagas
Gm
si en tus besos vive toda mi ilusin.

Y que pase lo que pase,


G7
Cm
este pecho amante es no ms de ti.
Gm
D7
Aunque yo quisiera no podr olvidarte
G
porque siempre vas dentro de m.

file:///C|/Archivos%20de%20programa/eMule/Incoming/_cancionero-guitarra-bandurria_(1)/Espinita.htm01/11/2008 10:44:55 p.m.

Est cantando la Tuna

EST CANTANDO LA TUNA (Jos Belmonte Trujillo, Percha, Tuna de


Econmicas de Sevilla)

Gm
Con mi bandurria a la espalda
D7
recorro las calles buscando fortuna,
mientras arriba en el cielo
Gm
celosa me observa mi novia la luna.

Una ventana se abre


G7
Cm
en dulce respuesta a mi suave requiebro,
Gm
que el viento lleva en volandas
D7
Gm
G7
cruzando Baranda en pos de un anhelo,
C
G
mientras abajo en la calle
E7
Am
D7
G / C / D7
canciones de ronda suben hasta el cielo.

G
Est cantando la Tuna
E7
Am
sones de amor y alegra,
D7
Am
y hasta el aire se detiene,
D7
G / C / D7
cantando va ingeniera.

G
Nia si oyes a la ronda
G7
C
cantar bajo tu balcn,
G
vers que los estudiantes
file:///C|/Archivos%20de%20programa/eMule/Incoming/_...ionero-guitarra-bandurria_(1)/EstaCantandoLaTuna.htm (1 de 2)01/11/2008 10:44:55 p.m.

Est cantando la Tuna

E7
Am
llevan siempre en el semblante
D7
G / G7
una nota de ilusin,
C
G
que cuando canta mi tuna
E7
Am
las estrellas y la luna
D7
G
(Final: C, G)
van cantando su cancin.

file:///C|/Archivos%20de%20programa/eMule/Incoming/_...ionero-guitarra-bandurria_(1)/EstaCantandoLaTuna.htm (2 de 2)01/11/2008 10:44:55 p.m.

Esta tarde vi llover

ESTA TARDE VI LLOVER

(A. Manzanero)

D
Ebd
Esta tarde vi llover, vi gente correr,
Em
Bbd / A7
y no estabas t.
Em
Gm
A7
La otra noche vi brillar un lucero azul,
D
Am7 / D7
y no estabas t.

G
B7
Em
La otra tarde vi que un ave enamorada
C#7
F#m B7
daba besos a su amor ilusionada,
Em
A7
y no estabas.

D
Ebd
Esta tarde vi llover, vi gente correr,
Em
Bbd / A7
y no estabas t.
Em
Gm
A7
El otoo vi llegar, al mar o cantar,
D
Am7 / D7
y no estabas t.

G
F#7
Ya no s cuanto me quieres,
Bm
Gm
si me extraas o me engaas.
D
Ebd Em
Bm
Solo se que vi llover, vi gente correr,
A7
D
y no estabas t.

file:///C|/Archivos%20de%20programa/eMule/Incoming/_cancionero-guitarra-bandurria_(1)/EstaTardeViLlover.htm01/11/2008 10:44:55 p.m.

Estrellita del Sur

ESTRELLITA DEL SUR

A
Bm
Cuando lejos de ti quiera penar el corazn,
E7
A
yo te recordar en tu rer y en tu gemir.
F#
Bm
La sensacin que fue canto de amor, himno de paz,
D
A
E7
A
los momentos de dolor slo sern felicidad. (BIS)

A
Bm
No, no, no te digo un adis Estrellita del Sur,
A7
A
porque pronto volver a tu lado otra vez.
F#
Bm
Y de nuevo sentir la fragancia sutil,
D
A
E7
A
campanas de bonanza repican en mi corazn.

file:///C|/Archivos%20de%20programa/eMule/Incoming/_cancionero-guitarra-bandurria_(1)/EstrellitaDelSur.htm01/11/2008 10:44:55 p.m.

Estudiantina Madrilea

ESTUDIANTINA MADRILEA

(Padilla / Muoz / Romn)

Em
Por la calles de Madrid
B7
bajo la luz de la luna,
Am / B7
de Cascorro a Chamber,
Em
pasa rondando la tuna.

E7
Su alegra y buen humor
Am
son en la noche abrilea
Em
B7
como un requiebro de amor (de amor, de amor)
E
a la mujer madrilea.

E
Y asmate, asmate al balcn
B7
carita de azucena,
F#m
B7
y as vers que pongo en mi cancin
E
A / B7 / E
suspiros de verbena.

E7
Adrnate cindote un mantn
A
de la China, la China,
Am
B7
asmate, asmate al balcn
E
a ver la estudiantina.

G#
A
G#
Clavelitos rebonitos del jardn de mi Madrid,
B
madrilea no nos plantes
C
B
porque somos estudiantes,
C
B
y cantamos para t.
(Modulacin a G)

G
Y asmate, asmate al balcn
D7
carita de azucena,
Am
D7
y as vers que pongo en mi cancin
file:///C|/Archivos%20de%20programa/eMule/Incoming/_...ero-guitarra-bandurria_(1)/EstudiantinaMadrilena.htm (1 de 6)01/11/2008 10:44:56 p.m.

Estudiantina Madrilea

G / C / D7 / G
suspiros de verbena.

G7
Adrnate cindote un mantn
C
de la China, la China,
Cm
D7
asmate, asmate al balcn
G
a ver la estudiantina.

INTRODUCCIN: G, D7, G, E7, Am, G, D7, G, B7

CIFRADOS
|-5-5-5-3--2-2-2-2-0------------------------3-3-3-2--0-0-0-0--------------------0------|---------------------3-3-3-3-2--0---0-3--2------------------3--2-2-2-2-0----0-2--3----|----------------------------------3--------------------------------------3------------|
|
|-2-2-2-0-----------------------------------0-00---------------------------------------|----------3-3-3-3-2--0-0-0-0----------0----------3--2-2-2-20--------------------------|-----------------------------3--1-0-1----3---------------------3-3-3-3-1--0-1-3-33-----

|-5-5-5-3--2-2-2-2-0-------------------2--0----0-2-3-5--2----0-------------0-2-3-2-----|---------------------4-4-4-4-2--0-2-4------4-------------4----2--4-4-2--4---------2---|---------------------------------------------------------------------------------------|
|
|-2-2-2-0------------------------------------------0-2------------------------0--------|----------4-4-4-4-2--0-0-0-0---------------0--2-4------3-0--2------0----0-2-3---2-----|-----------------------------3---1---0---1--------------------3--3---4------------4----

Por las calles de Madrid


bajo la luz de la luna
de
|-2---2--2---1---2--1---2--------2-1-2-1-2---------------0------0--2-0--0-0-2-3-2-0--0-|---2----------------------3--0------------3-0---0-2--3-----3--------------------------file:///C|/Archivos%20de%20programa/eMule/Incoming/_...ero-guitarra-bandurria_(1)/EstudiantinaMadrilena.htm (2 de 6)01/11/2008 10:44:56 p.m.

Estudiantina Madrilea

|---------------------------------------------------------------------------------------|
|
|----------------------------------------------------------------------------0---------|-2---2--3---2---3--2---3--0-----3-2-3-2-3-0----------0--2---0--2--3-2--2-2-3---3-2--2-|---4-------------------------0--------------0---03-------------------------------------

Cascorro_a Chamber
pasa rondando la tuna
Su_alegra_y buen
|----0--------0-------------------------0--2--3--5--3-2--3-2-3-2-3-2----2--0--2-0--2---|-3------3-------3-2--3-2-3-2-3-2--23--------------------------------------------------|---------------------------------------------------------------------------------------|
|
|---------------------------------------------------------------------------------------|-0--2---0----2--0----0---0---0----2-0--2--2--0--2--2-0--0-0-0-0-0-0----3--2--3-2--3---|------------------4----4---4---4-4-----------------------------------------------------

humor
son en la noche_abrilea
como_un requiebro de_amor
|-0--------0-2-0--------------2---0---2-5-3--3-3-2-0-2-3-------------0---------2-------|---4--4-4-------4--0--2---4------------------------------2--2----3------3---2-----3-20|---------------------------------------------------------------------------------------|
|
|---------------------------------------2-0--0-0------0--------------------------------|-2-0--0-0-2-4-2-0---------0--4---2---4----------3-2-3------------0--2---0------3-0----|-------------------3--3----------------------------------3--3---------------3-------31-

a la mujer madrilea. Y_asmate y_asmate_al balcn carita de_azucena


|--------------------------2--0---2-----0-0--0----------------------------3-20---------|---------0-2---0----2-0--------4----4------------2--4---2-0----------0---------4-2-42-|-4-4--4-----------4-----------------------------------------4---2--0--4---------------|
|
|------------------------------------------------------------------------0-------------|--------------------------4--2-0-4--0--2-2--2-------0----------------------4-2-0--0---|-0-0--0--1-4---1--0-0-0--------------------------4------4-2-0--------2-0---------4---

file:///C|/Archivos%20de%20programa/eMule/Incoming/_...ero-guitarra-bandurria_(1)/EstudiantinaMadrilena.htm (3 de 6)01/11/2008 10:44:56 p.m.

Estudiantina Madrilea

4-|----------------------------------------------------------------3-2--------------------

y_as vers que pongo_en mi cancin suspiros de verbeeeeena


Adrnate
|------3--2--0-3----0--2---2----2------0----------------------------0-3-2-2-1-2-2-0---2|-0--------------------------------4-------4--2-0---------0-------4-----------------4--|---4-----------------------------------------------4--2----4-20-----------------------|
|
|------0-------0-----------------------------------------------------0-----------------|---------4--2------2--4---4----4--0---2---0----------------------0-2---4-4-2-4-4-2--04|-2-0-----------------------------------------4-2---0-----2-0--0-----------------------|------------------------------------------------------3-----3--------------------------

cindote_un mantn de la China la China


asmate asmate_al balcn a ver
|---0--0--0------------------------------------------0-0----0--------------------------|-4------------2--4---2--0---4-2--0---4-2--2-2-1-2-4-----4-2---2-4-4--4----0--2-0------|----------------------------------------------------------------------------------4---|
|
|---------------------------------------------------------------------------------------|-0-2--2--2-------0----------0--------0-------------0-2-2-0---2---0-0-0----------------|--------------4------4--2-----4--2------4--4-4-4-4---------4---4-----------2--4--2-0---

la_estudiantina. Clavelitos rebonitos del jardn de mi Madrid, madrilea no nos plantes


|-------------------------------------------------------------------0-2-2--2--2----2-0-|------------2-0----0-2-4-4---4-4-4-2---0-------------0--2--4---4----------------------|--0---2-4----------------------------------4--2--4------------------------------------|
|
|-----------------------3-3---3-3-3-3---3---3--0---0--0--0--3---------2-2--2--2----2-2-|-------------------0---4-4---4-4-4-4---4---4--0---0--0--0--4----0--2-2-2--2--2----2-2-|--0---2-4---4-0------4-4-4---4-4-4-4---4---4--2---2--2--2--4---------4-4--4--4----4-4--

file:///C|/Archivos%20de%20programa/eMule/Incoming/_...ero-guitarra-bandurria_(1)/EstudiantinaMadrilena.htm (4 de 6)01/11/2008 10:44:56 p.m.

Estudiantina Madrilea

porque somos estudiantes y cantamos para ti. Y_asmate y_asmate_al balcn carita
|---------------------------------------0--2---5--3-2-5--2--3-3--3----0--2--0----------|-3---2--3-2--0----0------0--2--3-2---3----------------------------------------32------|----------------4----4----------------------------------------------------------------|
|
|-2---2--3-3--3--3-3---3-----------------------2--0---2-----0-0-0----------------------|-2---2--0-0--0--0-4---4--0--0----------------------3----3------------2--3---20--------|-4---4------------4---4--------3-3---1-1--4------------------------------------4-------

de_azucena
y_as vers que pongo_en mi cancin suspiros de
|------------7-5-3-2-0-2-0-------7--5--3-7----3--5---5----5--2---2---2-0---------------|--0----3-2----------------3-2--------------------------------------------3--2---------|----3---------------------------------------------------------------------------------|
|
|------------3-2-0---------------3--2--0-3----0--2---2----2-----0----------------------|-------0----------3-2-3-2-0---------------------------------3-------3--20-------------|--1--0---3------------------3-----------------------------------------------3----------

verbeeeeena
Adrnate cindote_un mantn de la China la China
|------------2-3-7-5-5-4-5--5-3--2-5--2-3--3--3----0--2---0------2-0------2-0--0-0---02|-0--3-2-0---------------------------------------------------3--------3-----------4----|---------4----------------------------------------------------------------------------|
|
|--------------0-3-2-2-0-2--2-0----2----0--0-0-----------------------------------------|----0-------3-------------------3----3------------2--3---2--0---3-2--0---3-2--2-2-0-23|-1----3-10-----------------------------------------------------------------------------

asmate asmate_al balcn a ver la_estudiantina.


|-3-3-2-0-3-0-2-2--2-------0--------------------0------5-5-5-3--2-2-2-20----------------

file:///C|/Archivos%20de%20programa/eMule/Incoming/_...ero-guitarra-bandurria_(1)/EstudiantinaMadrilena.htm (5 de 6)01/11/2008 10:44:56 p.m.

Estudiantina Madrilea

|-----------------------3-----3--2--------0-2-----3------------------------3-3-3-32----|------------------------------------3-------------------------------------------------|
|
|-0-0-----0--------------------------------------------2-2-20--------------------------|-----3-2---2-3-3--3----0--2--0-----------------0---------------3-3-3-3-2--0-0-00------|--------------------------------3----0---1-3-----3-------------------------------3-----

|------------3-3-3-2--0-0-0-0---------------------0-----5-5-5-3--2-2-2-20--------------|-0---0-3--2------------------3--2-2-2-2-0----0-2---3-----------------------4-4-4-42---|---3--------------------------------------3-------------------------------------------|
|
|------------0-0-0--------------------------------------2-2-20-------------------------|-------0----------3--2-2-2-2-0----------------------------------4-4-4-4-2--0-0-00-----|-1-0-1----3---------------------3-3-3-3-1--0-1-3-3-3------------------------------4----

|-------2--0----0-2-3-5--2----0------------|-0-2-4------4-------------4----2--4----4--|-------------------------------------4----|
|
|-------------------0-2--------------------|------------0--2-4------3-0--2------------|--1---0---1--------------------3--3----3--|-------------------------------------3-----

file:///C|/Archivos%20de%20programa/eMule/Incoming/_...ero-guitarra-bandurria_(1)/EstudiantinaMadrilena.htm (6 de 6)01/11/2008 10:44:56 p.m.

Estudiantina Portuguesa

ESTUDIANTINA PORTUGUESA

(Padilla / Castro / Rigel)

Am
F
E7
Somos cantores de la tierra lusitana,
Am
traemos canciones de los aires y del mar,
A7
Dm
vamos llenando los balcones y ventanas
G7
C
de melodas del antiguo Portugal.

Am
F
E7
Oporto riega en vino rojo las praderas
Am / A7
de flores rojas va cubriendo el litoral,
Dm
G7
C
F
verde es el Tajo, verdes son sus dos riberas,
E7
A
los dos colores de la ensea nacional.

A
E7
A
Por qu tu tierra toda es un encanto,
Bbd
E7
por qu, por qu se maravilla quien te ve,
Bm
E7
Ay!, Portugal, porque te quiero tanto,
Bm
E7
A
por qu, por qu te envidian todos, Ay!, por qu.

A
E7
A
Ser que tus mujeres son hermosas,
Bbd
E7
ser, ser que el vino alegra el corazn,
Bm
E7
ser que huelen bien tus lindas rosas,
Bm
E7
A
ser, ser que ests baado por el Sol.

file:///C|/Archivos%20de%20programa/eMule/Incoming/_cancionero-guitarra-bandurria_(1)/EstudiantinaPortuguesa.htm01/11/2008 10:44:56 p.m.

La fiesta de San Benito

LA FIESTA DE SAN BENITO

(Popular)

Dnde est mi negra bailando


con las sayas de Tundiki, bailando,
con las sayas de Tundiki, bailando.
Dnde se ha metido mi negra,
cargada de su guagita, bailando,
cargada de su guagita, bailando.
Negra, samba, coge tu mante,
siempre adelante.
Negra, samba, coge tu mante,
siempre adelante.
F
C
Hay un lorito con su monito,
F
C
hay un lorito con su monito.
E7
Am
Es un regalo de San Benito
E7
Am
para la fiesta de los negritos.

|
|
|
|
| (BIS)
|
|
|

F
C
Un viejo caa con su caballo,
F
C
un viejo caa con su caballo,
E7
Am
estn durmiendo en su cabaa,
E7
Am
estn durmiendo en su cabaa.

|
|
|
|
| (BIS)
|
|
|

Ya nos vamos,
ya nos vamos,
con las sayas
con las sayas
con las sayas
con las sayas

ya
ya
de
de
de
de

nos vamos cantando,


nos vamos bailando,
Tundiki bailando,
Tundiki bailando,
Tundiki cantando,
Tundiki bailando.

Negra, samba, coge tu mante,


file:///C|/Archivos%20de%20programa/eMule/Incoming/_...cionero-guitarra-bandurria_(1)/FiestaDeSanBenito.htm (1 de 2)01/11/2008 10:44:56 p.m.

La fiesta de San Benito

siempre adelante.
Negra, samba, coge tu mante,
siempre adelante.fi

file:///C|/Archivos%20de%20programa/eMule/Incoming/_...cionero-guitarra-bandurria_(1)/FiestaDeSanBenito.htm (2 de 2)01/11/2008 10:44:56 p.m.

Fina estampa

FINA ESTAMPA

(Chabuca Granda / G. A. Santiago)

A7
D
Una veredita alegre con luz de luna o de sol,
A7
D
tendida como una cinta con sus lados de arrebol.
A7
D
Arrebol de los geranios y sonrisas con rubor,
A7
D
arrebol de los claveles y las mejillas en flor.

D#d
A7
D
Perfumada de magnolias rociada de maanitas,
A7
D
la veredita sonre cuando tu piel acaricia.
D#d
A7
D
Y la cucul se re y la ventana se agita
Em
A7
D
cuando por esa vereda tu fina estampa pasea.

A7
D
A7
Fina estampa, caballero, caballero de fina estampa,
D
A7
un lucero que sonriera bajo un sombrero.
D
No sonriera ms hermoso
A7
D
ni ms luciera, caballero,
Em
y en tu andar, andar reluce,
A7
D
la acera al andar, andar.

Te lleva
te lleva
Veredita
tacn de

A7
D
hacia los zaguanes y los patios encantados,
A7
D
por las plazuelas y los amores soados.
A7
D
que se arrulla con tafetanes bordados,
A7
D
chapn de seda y fustes almidonados.

file:///C|/Archivos%20de%20programa/eMule/Incoming/_cancionero-guitarra-bandurria_(1)/FinaEstampa.htm (1 de 2)01/11/2008 10:44:56 p.m.

Fina estampa

A7
D
Es un caminito alegre con luz de luna o de sol,
A7
D
que he de recorrer cantando por si te puedo alcanzar.
A7
D
Es un caminito alegre con luz de luna o de sol
A7
D
Fina estampa caballero quien te pudiera aguardar.

Fina estampa, caballero ...

file:///C|/Archivos%20de%20programa/eMule/Incoming/_cancionero-guitarra-bandurria_(1)/FinaEstampa.htm (2 de 2)01/11/2008 10:44:56 p.m.

Flor de ausencia

FLOR DE AUSENCIA

Como rosa que pierde su aroma, as era mi vida.


Como nave que est a la deriva sin rumbo y sin calma,
triste y solo buscaba un olvido que alegrara mi alma,
y en las tinieblas de mi dolor apareciste t.

Como un encanto tus ojos quitaron las penas,


que en mi corazn, dejara otro amor.
Como una magia divina tus besos encendieron,
de nuevo la llama de mi corazn.

Y al mirar tus ojos, veo convertidas


en flor las heridas, que dej otro amor.
Y ahora tu aroma de encanto perfuma mi vida,
linda flor de ausencia, dulce inspiracin.
Fa# m
Eres la flor que me inspira,

Do# 7
Fa# m

reina de mis ilusiones,


La M
La 7
por ti mi alma suspira,

Re M

oh! rosa de mis amores.

Cien guajiras de un montn


me salieron al encuentro,

file:///C|/Archivos%20de%20programa/eMule/Incoming/_cancionero-guitarra-bandurria_(1)/FlorDeAusencia.htm (1 de 2)01/11/2008 10:44:56 p.m.

Flor de ausencia

ven que te espero un momento,


para entregarte mi amor, mujer.

Eres la flor que me inspira ...

Llegaste a mi corazn
para alegrarme la vida,
ven que te espero guajira,
duea de mi corazn, mujer.

Eres la flor que me inspira ...

file:///C|/Archivos%20de%20programa/eMule/Incoming/_cancionero-guitarra-bandurria_(1)/FlorDeAusencia.htm (2 de 2)01/11/2008 10:44:56 p.m.

La flor de la canela

LA FLOR DE LA CANELA

(Chabuca Granda)

Am
E7
Am
Djame que te cuente, limea,
A7
Dm
djame que te diga la gloria
G7
C
del ensueo que evoca en la memoria
E7
Am 50 63 61 60
el viejo puente del ro y la alameda.

E7

Am
Djame que te cuente, limea,
A7
Dm
ahora que an perdura el recuerdo,
G7
C
ahora que an se mecen en un sueo,
E7
Am
el viejo puente del ro y la alameda.

G7
C
Jazmines en el pelo y rosas en la cara,
G7
C
airosa caminaba la flor de la canela.
G7
C
Derramaba lisura y a su paso dejaba
A7
Dm
G7
C
aromas de mixtura que en el pecho llevaba.

G7
C
Del puente a la alameda el menudo pie la lleva
G7
C
por la vereda que se estremece al ritmo de sus caderas.
G7
C
Recoga la risa de la brisa del ro
A7
Dm
G7
C
50 63 61 60
y al viento la lanzaba, del puente a la alameda.

E7

Am
Djame que cuente, limea,
file:///C|/Archivos%20de%20programa/eMule/Incoming/_cancionero-guitarra-bandurria_(1)/FlorDeLaCanela.htm (1 de 2)01/11/2008 10:44:57 p.m.

La flor de la canela

E7
Am
50 63 61 60 E7
Ay, deja que te diga, morena, mi pensamiento.
Am
A ver si as despiertas del sueo
E7
Am
50 63 61 60 E7
el sueo que entretiene, morena, mi sentimiento.

Am
Aspiras de la lisura que da la flor de canela,
E7
Am
50 63 61 60
adornada con jazmines, matizando su hermosura.
Am
Alfombras de nuevo el puente y engalanas la alameda,
E7
Am
y el ro acompasar tus pasos por la vereda.

E7

G7
Y recuerda que... Jazmines en el pelo...

file:///C|/Archivos%20de%20programa/eMule/Incoming/_cancionero-guitarra-bandurria_(1)/FlorDeLaCanela.htm (2 de 2)01/11/2008 10:44:57 p.m.

Flor marchita

FLOR MARCHITA

Em
B7
Em
En cada hoja del libro
B7
Em E7
voy dibujando una flor,
Am
E7
Am
que se parezca a tu cara
C
B7
en su encendido rubor.

Em
B7
Em
Pero no lo he conseguido,
B7
Em
he de subir al altar,
C
Am
Em
robarle una a la virgen,
B7
E
y as poderte cantar.

E
Toma nia esta rosa,
B7
plntala en tu balcn.
F#m
No la dejes, se deshoja,
B7
E / G#7
cudala con amor.

C#m
G#m
A
E
Si la flor se marchita mi vida se apaga,
C#7
F#m
B7
E G#7
no juegues nia y dame la flor.
C#m
G#m
A
E
Si la flor se marchita mi vida se acaba,
C#7
F#m
B7
E
mtame antes que muera de amor.

Em

B7

Em

file:///C|/Archivos%20de%20programa/eMule/Incoming/_cancionero-guitarra-bandurria_(1)/FlorMarchita.htm (1 de 2)01/11/2008 10:44:57 p.m.

Flor marchita

De noche cuando me duermo


B7
Em E7
sueo, bendita ilusin,
Am
E7
Am
t a mi lado chiquilla,
C
B7
juntos paseamos los dos.

Em
B7
Em
Todas las noches lo mismo,
B7
Em
no quiero ya soar ms,
C
Am
Em
quiero que vengas conmigo,
B7
E
y as poderte cantar,

Toma nia esta rosa ...

file:///C|/Archivos%20de%20programa/eMule/Incoming/_cancionero-guitarra-bandurria_(1)/FlorMarchita.htm (2 de 2)01/11/2008 10:44:57 p.m.

Fonseca

FONSECA

(Tuna Compostelana)

Em
Adis, adis, adis,
aulas de mi querer
B7
donde con ilusin mi carrera estudi.
Am
Em
Adis, mi universidad
B7
Em
cuyo reloj no volver a escuchar.
Am
Em
Adis, mi universidad
B7
Em
cuyo reloj no volver a escuchar.

Em
B7
Em
Las calles estn mojadas
B7
y parece que llovi
Am
B7
son lgrimas de una nia
Am
B7
Em
por el amor que perdi.

B7 Em
B7
Triste y sola, sola se queda Fonseca
Am
B7
Am
B7
Em
triste y llorosa, queda la Universidad.
B7 Em
E7
Am
Y los libros, y los libros empeados
Em
B7
Em
en el monte, en el monte de piedad.

Em
B7
Em
No te acuerdas cuando te deca
B7
a la plida luz de la luna
Am
B7
yo no puedo querer ms que a una
file:///C|/Archivos%20de%20programa/eMule/Incoming/_cancionero-guitarra-bandurria_(1)/Fonseca.htm (1 de 2)01/11/2008 10:44:57 p.m.

Fonseca

Am
B7
Em
y esa una mi vida eres t.

INTRODUCCION:

Am, Em, B7, Em, E7, Am, Em, B7, Em

file:///C|/Archivos%20de%20programa/eMule/Incoming/_cancionero-guitarra-bandurria_(1)/Fonseca.htm (2 de 2)01/11/2008 10:44:57 p.m.

Francisco Alegre

FRANCISCO ALEGRE

(Quintero / Len /Quiroga)

Bm
F#7
En los carteles han puesto un nombre que
Bm
F#7
Bm
Francisco Alegre y ol, Francisco Alegre
Bm
F#7
La gente dice Vivan los hombres! cuando
Em
F#7
Yo estoy rezando por l
con la boquita

Bm
no lo quiero mirar.
y ol.
Bm
lo ven torear,
Bm
cerr.

A
A7
D
Desde la arena me dice Nia morena,
A
A7
D
por qu me lloras carita de emperaora?
F#7
Bm
Dame tu risa mujer, que soy torero andaluz,
Em
F#7
y llevo al cuello la Cruz de Jess que me diste t.

F#7
Bm
Francisco Alegre, corazn mo,
F#7
tiende su capa sobre la arena del redondel.
Em
F#7
Francisco Alegre tiene un vestido,
Bm
con un te quiero que entre suspiros yo le bord.

A
A7
D
Torito bravo no me lo mires de esa manera,
A
A7
D
deja que adorne tu rizos negros con su montera.
F#7
Bm
Torito noble ten compasin,
Em
Bm
F#7
Bm
que entre bordaos lleva encerrado Francisco Alegre y ol mi corazn.

Bm
F#7
Bm
En mi ventana tengo un letrero pa quien lo venga a mirar,
file:///C|/Archivos%20de%20programa/eMule/Incoming/_cancionero-guitarra-bandurria_(1)/FranciscoAlegre.htm (1 de 2)01/11/2008 10:44:57 p.m.

Francisco Alegre

Em
F#7
Bm
Francisco Alegre y ol, Francisco Alegre
Bm
F#7
En el que dice cunto te quiero pero que
Em
F#7
por culpa de otro querer no nos podemos

y ol.
Bm
pena me da,
Bm
casar.

A
A7
D
Desde la arena me dice, Nia morena,
A
A7
D
Quien te enamora carita de emperaora.
F#7
Bm
Ya no te acuerdas mujer de este torero andaluz,
Em
F#7
que lleva al cuello la cruz de Jess que le diste t.

file:///C|/Archivos%20de%20programa/eMule/Incoming/_cancionero-guitarra-bandurria_(1)/FranciscoAlegre.htm (2 de 2)01/11/2008 10:44:57 p.m.

La galopera

LA GALOPERA

(Mauricio Cardoso Ocampo)

C
F
G7
C
En un barrio de Asuncin gente viene y gente va,
G7
ya est llamando el tambor, la galopa va a empezar.
F
C
Tres de febrero lleg, el patrn seor San Blas,
G7
C
ameniza la funcin la banda de Trinidad.

C
F
G7
C
Debajo de la entramada ya est formada la rueda,
G7
ya salen las galoperas, la galopa a bailar.
F
C
Luciendo el quihuaver, zarcillos de tres pendientes,
G7
C
anillo, siete ramales y el rosario de coral.

G7
Galopera,
C
baila tu danza hechicera,
G7
galopera,
F
C
mueve tus plantas desnudas
G7
F
G7
C
cimbreando la cintura en tu promesa de amor.

C
F
G7
C
La morena galopera, de la estirpe indolatina,
G7
luce dos trenzas floridas y viste el tipoy yegu.
F
C
Sobre su cabeza erguida lleva el cntaro nativo,
G7
C
agua para el peregrino la hermosa nia mitacu.

file:///C|/Archivos%20de%20programa/eMule/Incoming/_cancionero-guitarra-bandurria_(1)/Galopera.htm01/11/2008 10:44:58 p.m.

Gaudeamus Igitur

GAUDEAMUS IGITUR

Gaudeamus igitur iuvenes dum sumus (BIS)


Post iucundam iuventutem
Post molestam senectutem
Nos habebit humus (BIS)

Vivat academia, Vivant professores (BIS)


Vivat membrum quodlibet
Vivant membra quaelibet
Semper sint in flore (BIS)

Vita nostra brevis est, brevi finietur (BIS)


Venit mors velociter
rapit nos atrociter
nemini parcetur (BIS)

Alegrmonos, pues,
mientras somos jvenes,
que despus de la alegre juventud
y de la achacosa vejez
nos poseer la tierra.
Viva la Universidad,
vivan los maestros!
Viva cada uno,
vivan todos unidos,
que estn siempre en flor.
file:///C|/Archivos%20de%20programa/eMule/Incoming/_cancionero-guitarra-bandurria_(1)/Gaudeamus.htm (1 de 2)01/11/2008 10:44:58 p.m.

Gaudeamus Igitur

Breve es nuestra vida,


pronto ha de acabarse.
Rauda llega la muerte
y nos arrebata violenta
sin perdonar a nadie.

file:///C|/Archivos%20de%20programa/eMule/Incoming/_cancionero-guitarra-bandurria_(1)/Gaudeamus.htm (2 de 2)01/11/2008 10:44:58 p.m.

Gijon del alma

GIJN DEL ALMA

(J. Daz / J. y B. Abello)

C
Esa villa marinera
F
de mi tierra asturiana,
Dm G7
donde la olas del mar
C
me despiertan de maana.

Tiene
tiene
tiene
y por

C
gracia, tiene embrujo,
F
encanto y alegra,
C
G7
marcha por el puerto
C
la calle Corrida.

C
F
Ese Gijn que quiero y que tanto adoro,
G7
C
ese Gijn de ensueo que es un tesoro.
F
Lo llevar muy dentro de mis entraas,
C
G7
C
no te olvidar nunca, nunca, nunca, Gijn del alma.

C
Barrio de Cimadevilla,
F
cuna de grandes cantores,
Dm
G7
la playa de San Lorenzo,
C
donde surgen los amores.

C
Y esa belleza del muro,
file:///C|/Archivos%20de%20programa/eMule/Incoming/_cancionero-guitarra-bandurria_(1)/Gijon.htm (1 de 2)01/11/2008 10:44:58 p.m.

Gijon del alma

F
con sus lindas chavalinas,
C
G7
y ese gijons cachondo,
C
que alterna en las sidreras.

Ese Gijn que quiero ...

INTRODUCCIN: 53, 40, 42 F, C, G7, C

(BIS)

file:///C|/Archivos%20de%20programa/eMule/Incoming/_cancionero-guitarra-bandurria_(1)/Gijon.htm (2 de 2)01/11/2008 10:44:58 p.m.

La golondrina

LA GOLONDRINA

(Jos Pal)

D
Ebd A7
Adonde ir veloz y fatigada,
D
Ebd
A7
la golondrina que de aqu se va,
D
D7
G
o si en el viento se hallar extraviada,
D B7
Em
A7
D
buscando abrigo y no lo encontrar.

A7
Junto a mi lecho
D
hallar ese nido,
A7
en donde pueda
D
la estacin pasar.

Tambin yo estoy
D7
G
en la regin perdido,
A7
D B7
Oh, cielo santo!
Em
A7
D
y sin poder volar.

D
Ebd A7
Dej, tambin, mi patria idolatrada,
D Ebd
A7
esa mansin que me vio nacer.
D
D7
G
Mi vida es hoy errante y angustiada,
D B7
Em
A7
D
y ya no puedo, a la mansin volver.

A7
D
Ave querida, amada peregrina,
file:///C|/Archivos%20de%20programa/eMule/Incoming/_cancionero-guitarra-bandurria_(1)/Golondrina.htm (1 de 2)01/11/2008 10:44:58 p.m.

La golondrina

A7
D
mi corazn al tuyo acercar.
D7
G
Oir tu canto tierna golondrina,
D B7
Em
A7
D
recordar
mi patria y llorar.
D B7
Em
A7
D
recordar
mi patria y llorar.

file:///C|/Archivos%20de%20programa/eMule/Incoming/_cancionero-guitarra-bandurria_(1)/Golondrina.htm (2 de 2)01/11/2008 10:44:58 p.m.

Granada

GRANADA

(Agustn Lara)

Am
E7
Am
Granada, tierra soada por m,
G
F
E7
mi cantar se vuelve gitano cuando es para ti.
E
F
E
Mi cantar hecho de fantasa,
F
mi cantar, flor de melancola
Dm
60, 64, 52, 40, 52, 40, 53, 50, 52, 63, 50, 61,
60 (BIS) E / G7
que yo te vengo a dar.

C
Granada tierra ensangrentada
Ebd
G7
en tarde de toros,
mujer que conserva el embrujo
C
de los ojos moros,
Em
te sueo rebelde y gitana, cubierta de flores,
B7
Em
B7
y beso tu boca de grana, jugosa manzana,
Em G7
que me habla de amores.

C
Ebd
G7
Granada manola cantada en coplas preciosas,
C
no tengo otra cosa que darte que un ramo de rosas,
C7
F
de rosas de suave fragancia
Fm
C
G7
C
que le dieran marco a la virgen morena.

Ab
C
Granada, tu tierra est llena
Ebd
G7

file:///C|/Archivos%20de%20programa/eMule/Incoming/_cancionero-guitarra-bandurria_(1)/Granada.htm (1 de 2)01/11/2008 10:44:59 p.m.

Granada

de lindas mujeres, de sangre y de sol.

file:///C|/Archivos%20de%20programa/eMule/Incoming/_cancionero-guitarra-bandurria_(1)/Granada.htm (2 de 2)01/11/2008 10:44:59 p.m.

Guantanamera

GUANTANAMERA

(Letra: Jos Mart / Joseto Fernndez Daz)

G
A7
Yo soy un hombre sincero
D
G
A7
De donde crece la palma.
D
G A7
Y antes de morirme quiero
D
G A7
echar mis versos del alma.

|
|
| BIS
|

G
A7
D
G
A7
Guantanamera, Guajira Guantanamera,
D
G A7
Bm
E7 A7
Guantanamera, Guajira Guantanamera.

A7
Mi verso es de un verde claro,
D
G
A7
y de un jazmn encendido.
D
G A7
Mi verso es un ciervo herido,
D
G A7
que en el bosque busca amparo.

|
|
| BIS
|

Guantanamera . . .

G
A7
|
A los pobres de la tierra,
|
D
G
A7
|BIS
quiero yo mi suerte echar.
|
D
G A7
Que el arroyo de la sierra,
D
G A7
me complace ms que el maaar.

Guantanamera . . .

file:///C|/Archivos%20de%20programa/eMule/Incoming/_cancionero-guitarra-bandurria_(1)/Guantanamera.htm (1 de 2)01/11/2008 10:44:59 p.m.

Guantanamera

D
G
chale semilla la maraca
A7
pa que suene Pao, Pao, Pao, Pao.
D
Sabor!

file:///C|/Archivos%20de%20programa/eMule/Incoming/_cancionero-guitarra-bandurria_(1)/Guantanamera.htm (2 de 2)01/11/2008 10:44:59 p.m.

Guapa

GUAPA

G
B7 Em
E7
Guapa, guapa, que chica ms guapa,
Am
D7
G D7
eres la ms guapa que yo vi.
G
B7 Em
E7
Guapa, guapa, que chica ms guapa,
Am
D7
G
D7
te quiero, te adoro, te llevo a los toros.

G
B7
Em
E7
Linda, linda, que chica ms linda,
Am
D7
G
D7
qu carita, qu culito, qu pechitos tan bonitos.
G
B7
Em
E7
Tonta, tonta, que chica ms tonta,
Am
D7
G
el guantazo que te voy a dar.

Tu padre
tu madre
E7
y yo sin
no puedo

Cm
me odia,
G F E
me agooobia,
Am
D7
mi novia
G
vivir.

Cm
Tu hermano me pierde
G F E
tu perro me mueerde
E7
Am
D7
y yo sin mi novia
G
no puedo vivir.

Cm
Y yo sin mi novia,
file:///C|/Archivos%20de%20programa/eMule/Incoming/_cancionero-guitarra-bandurria_(1)/Guapa.htm (1 de 2)01/11/2008 10:44:59 p.m.

Guapa

G F E
y yo sin mi nooovia,
E7
Am
D7
y yo sin mi novia,
G / D7 / G
no puedo vivir

INTRODUCCIN:

G, B7, E, Em, Am, D7, G, D7

file:///C|/Archivos%20de%20programa/eMule/Incoming/_cancionero-guitarra-bandurria_(1)/Guapa.htm (2 de 2)01/11/2008 10:44:59 p.m.

Guitarreando

GUITARREANDO

A
F#m
Unas coplas, unos vinos,
C#7
D
y un cierto dulzor llegando,
B7
E
y all en la flor del silencio,
A
E7
A
guitarreando, guitarreando.

A
F#m
Una zamba y una estrella,
C#7
D
con la copla regresando,
B7
E
y uno solito en la noche,
A
E7
A
guitarreando, guitarreando.

A
D
Muchacha cuando la pena
B7
E
humedece mi cancin,
D
A
le echo la culpa al roco
F
C
E
A
y le miento al corazn,
B7
E
cuando me oye desvelado,
A
E7
A
guitarreando por tu amor.

A
F#m
A estas horas unos vientos,
C#7
D
y algn recuerdo cantando,
B7
E
ciertas cosas no se dicen,
A
E7
A
guitarreando, guitarreando.

file:///C|/Archivos%20de%20programa/eMule/Incoming/_cancionero-guitarra-bandurria_(1)/Guitarreando.htm (1 de 2)01/11/2008 10:44:59 p.m.

Guitarreando

A
F#m
Una sombra y esta pena,
C#7
D
con la msica temblando,
B7
E
a veces me acuerdo de ella,
A
E7
A
guitarreando, guitarreando.

Muchacha cuando...

file:///C|/Archivos%20de%20programa/eMule/Incoming/_cancionero-guitarra-bandurria_(1)/Guitarreando.htm (2 de 2)01/11/2008 10:44:59 p.m.

Hace un ao

HACE UN AO

(F. Valds Leal)

D
G
A7
D
Hace un ao que yo tuve una ilusin,
G A7
hace un ao que hoy se cumple en este dia.
G
A7
D
Te recuerdas que en tus brazos me dorma,
A7
que yo inocente,
D
muy confiado te entregu mi corazn.

D
G
A7
D
Ese tiempo tan feliz no volver.
G A7
Mi cario lo pagaste con traiciones,
G
A7
D
me has dejado solo crueles decepciones,
A7
pero anda ingrata,
D
como pagas otro a ti te pagar.

D
G
A7
D
El recuerdo de tu amor quiero olvidar,
G A7
me quisiera emborrachar de sentimiento,
G
A7
D
te quisiera yo borrar del pensamiento,
A7
pero es intil,
D
que borracho ms y ms me he de acordar.

D
G
A7
D
Pero el tiempo es justiciero y vengador,
G A7

file:///C|/Archivos%20de%20programa/eMule/Incoming/_cancionero-guitarra-bandurria_(1)/HaceUnAno.htm (1 de 2)01/11/2008 10:44:59 p.m.

Hace un ao

y a pesar de tu hermosura placentera,


G
A7
D
si hoy te sobran muchos hombres que te quieran,
A7
vers ms tarde,
D
no habr nadie que se acuerde de tu amor.

file:///C|/Archivos%20de%20programa/eMule/Incoming/_cancionero-guitarra-bandurria_(1)/HaceUnAno.htm (2 de 2)01/11/2008 10:44:59 p.m.

Hasta siempre, Comandante

HASTA SIEMPRE, COMANDANTE

(Carlos Puebla)

Em
Am
B7
Aprendimos a quererte
Em
Am
B7
desde la histrica altura,
Em
Am
Em
donde el Sol de tu bravura,
B7
le puso cerco a la muerte.

Em
Am
B7
Aqu se queda la clara,
Em
Am
B7
la entraable transparencia
Em
D
de tu querida presencia,
C
B7
Comandante Che Guevara.

Em
Am
B7
Vienes quemando la brisa
Em
Am
B7
con sones de primavera,
Em
Am Em
para plantar la bandera
B7
con la luz de tu sonrisa.

Em
Am
B7
Tu mano gloriosa y fuerte
Em
Am
B7
sobre la historia dispara
Em
Am Em
cuando todo Santa Clara
B7
se despierta para verte.

Aqu se queda ....


file:///C|/Archivos%20de%20programa/eMule/Incoming/...o-guitarra-bandurria_(1)/HastaSiempreComandante.htm (1 de 2)01/11/2008 10:45:00 p.m.

Hasta siempre, Comandante

Em
Am
B7
Seguiremos adelante,
Em
Am
B7
como junto a ti seguimos,
Em
Am
Em
y con Cuba te decimos,
B7
Hasta siempre Comandante!

As se queda...

file:///C|/Archivos%20de%20programa/eMule/Incoming/...o-guitarra-bandurria_(1)/HastaSiempreComandante.htm (2 de 2)01/11/2008 10:45:00 p.m.

La hiedra

LA HIEDRA

(S. Seracini / DAsquito / B. Molar)

Dm
A7
Dm
Pasaron desde aquel ayer ya tantos aos.
Dm
A7
Dm
C
Dejaron en su gris correr, mil desengaos.
F
C
F
Mas cuando quiero recordar nuestro pasado,
A7
Gm
A7
te siento cual la hiedra, ligado a m.
Dm
A7
D / B7 / Em / A7
Y as, hasta la eternidad, te sentir.

D
F#m
Yo s que estoy ligado a ti
Em A7
ms fuerte que la hiedra.
D
F#m
Porque tus ojos de mis sueos
Em
A7
no pueden separarse, jams.

D
Donde quiera que ests,
D7
G
mi voz escuchars llamndote con ansiedad,
A7
por la pena, ya sin final,
D B7 / Em / A7
de sentirte en mi soledad.

D
F#m
Jams la hiedra y la pared
Em
A7
podran apretarse ms.
D
F#m
Igual tus ojos de mis ojos
Em
A7
no pueden separarse, jams.
file:///C|/Archivos%20de%20programa/eMule/Incoming/_cancionero-guitarra-bandurria_(1)/Hiedra.htm (1 de 2)01/11/2008 10:45:00 p.m.

La hiedra

D
Donde quiera que ests,
D7
G
mi voz escuchars llamndote con mi cancin.
A7
D
Ms fuerte que el dolor
B7
Em / A7
se aferra nuestro amor,
D
como la hiedra.

INTRODUCCIN:

Gm, D, Gm, D, F#m, Em, A7, Gm, Dm, A7, Dm

file:///C|/Archivos%20de%20programa/eMule/Incoming/_cancionero-guitarra-bandurria_(1)/Hiedra.htm (2 de 2)01/11/2008 10:45:00 p.m.

Horas de ronda

HORAS DE RONDA

(Villena y Villellas)

Am
E7
Con algazara cruza por la poblacin
Dm
E7
Am A7
la alegre tuna desgranando una cancin,
Dm
Am
cancin amante, cancin de ronda,
Dm
E7
Am
que hace feliz a la mujer en su ilusin.

Am
E7
Am
Por una escala de guitarras y bandurrias
Dm
E7
Am / Dm / E7
trepan las coplas hasta el ltimo balcn.

A
Bbd
E7
Horas de ronda de la alegre juventud
Bm
E7
A
que abren al viento surcos de noble inquietud.
Bbd
Bm
Sal nia hermosa, sal pronto a tu balcn
E7
A
que un estudiante te canta con pasin.

A
Bbd
E7
Horas de ronda que la noche guardar
C#7
F#m
como un recuerdo que jams se borrar.
F#
Bm
La estudiantina te dice adis, mujer,
E7
Am
y no suspires que pronto ha de volver.

Am
E7
Rasga el silencio de la noche una cancin
Dm
E7
Am A7
que busca abrigo en un amante corazn,
Dm
Am
horas de ronda, rumor de capas,
Dm
E7
Am
y una letrilla que se enreda en un balcn.

Am
E7
Am
Tras los cristales una sombra femenina
Dm
E7
Am / Dm / E7
que escucha atenta, temblorosa de emocin.

CIFRADO

file:///C|/Archivos%20de%20programa/eMule/Incoming/_cancionero-guitarra-bandurria_(1)/HorasDeRonda.htm (1 de 4)01/11/2008 10:45:00 p.m.

Horas de ronda

|-7-7-5-5-4-4-2-2-0---0-----5-5-4-4-2-2-2-4-2-1-2--4--4-4-4-9-9--4-9-7-5-4--5--2-2-2-77|-------------------2---4--------------------------------------------------------------|---------------------------------------------------------------------------------------|
|
|-4-4-2-2-0-0---------------2-2-0-0-------0--------0--1-1-1-1-1--1-1-1-1-1-2-----------|-------------4-4-2---2--0----------4-4-4---4-2-4------------------------------4-4-4-44|------------------3--------------------------------------------------------------------

|-2-7-5-3-2--0--|---------------|---------------|
|
|---------------|-4-4-4-4-4--0--|----------------

Con algazara cruza por la poblacin la_alegre tuna desgranando_una cancin, cancin
|-7--7--7-9-7---7-7--9---7--5--4--5----5--5--5--7-5--5---5-7---5--4--2---4----0--2-----|---------------------------------------------------------------------------------------|---------------------------------------------------------------------------------------|
|
|-4--4--4-5-4---4-4--5---4--2--0--2----2--2--2--4-2--2---2-4---2--0-----0--------------|--------------------------------------------------------------------4--------2--4-----|----------------------------------------------------------------------------------------

amante cancin de ronda que_hace feliz a la mujer en su_ilusin. Por una_escala de


|-4-4---------0---2--2-------7---7--7-9--7--7--5-7--5----4--2--0----0--5--2---4-7-0----|------2--4------------0---------------------------------------------------------------|---------------------------------------------------------------------------------------|
|
|-0-0------------------------4---4--4-5--4--4--2-4--2----0--------------------0-0-0----|-------------0---2--2--------------------------------------4--0----0--0-0-------------|------3--3------------1----------------------------------------------------------------

file:///C|/Archivos%20de%20programa/eMule/Incoming/_cancionero-guitarra-bandurria_(1)/HorasDeRonda.htm (2 de 4)01/11/2008 10:45:00 p.m.

Horas de ronda

guitarras y bandurrias trepan las coplas hasta_el ltimo balcn


|--4-2--5-----2--0--------7-7---5---4--7---0---4---2--5----2--0--0-2-4-0-2-4-5-4-2-0-24|----------4---------0---------------------------------4-------------------------------|---------------------------------------------------------------------------------------|
|
|--0--------------------------------0--0---0--0----------------------------------------|----4--4--4--4--0--------0-0---0------------------4--4-4--4-0-------------------------|-------------------1-------------------------------------------------------------------

Horas de ronda de la_alegre juventud que_abren al viento surcos de


|-5-7-7-7-7-7-7--7-7---5--5--4--4---2--2--0----0--------5---5--4---4---2--2--0--0------|--------------------------------------------2---4-------------------------------------|---------------------------------------------------------------------------------------|
|
|---2-2-2-2-2-2--4-4---2--2--0--0-----------------------2---2--0--0--------------------|---4-4-4-4-4-4---------------------4--4--2----2--0--------------------4--4--2--2------|-------------------------------------------3-------------------------------------------

noble_inquietud sal nia_hermosa sal pronto_a tu balcn que_un estudiante te canta


|----------------------------------------------0---------------------------------------|-4---0----4--2---0---0--2----2-0--0----2---4------2--4-----0---0--2--2--0--0--2-4-----|---------------------------------------------------------------------------------------|
|
|---------------------------------------------------------------------------------------|-------------------------------------------0---2-----0--------------------------0-----|-3---0----3--2---2---2--3----3-2--2----3----------3--------2---2--3--3--2--2-3---------

con pasin. Horas de ronda que la noche guardar como_un recuerdo que jams se borrar
|-0---2--4----7-7---5--5--4---4--2--2--0------0----5--5----4-4---2---2--2-4---2--1--24-|------------------------------------------2---4---------------------------------------|---------------------------------------------------------------------------------------|
|
|--------0----4-4---2--2--0---0--------------------2--2----0-0------------0-----------

file:///C|/Archivos%20de%20programa/eMule/Incoming/_cancionero-guitarra-bandurria_(1)/HorasDeRonda.htm (3 de 4)01/11/2008 10:45:00 p.m.

Horas de ronda

0-|-2---4--0-----------------------4--4--2------2-0----------------4---4--4-----4--24----|-----------------------------------------3---------------------------------------------

la_estudiantina te dice_adis mujer y no suspires que pronto_ha de volver.


|--4---4-4---9-9--4--9--7---5---4-5--2--2--2--7-7----2---7---5----3--2--0----|----------------------------------------------------------------------------|----------------------------------------------------------------------------|
|
|--1---1-1---1-1--1--1--1---1---1-2------------------------------------------|------------------------------------4--4--4--4-4----4---4---4----4--4--0----|-----------------------------------------------------------------------------

file:///C|/Archivos%20de%20programa/eMule/Incoming/_cancionero-guitarra-bandurria_(1)/HorasDeRonda.htm (4 de 4)01/11/2008 10:45:00 p.m.

Hoy estoy aqui

HOY ESTOY AQU

F
Hoy estoy aqu,
C
maana me voy,
F
C
pasado maana,
E7
Am
dnde me encontrar.

G
Cartita recibirs,
C
retratos te mandar.
F
C
Pero a mi persona
|
E7
Am
| BIS
nunca la tendrs.
|

F
Maana me voy
C
pa la guarnicin,
F
C
soldado ser,
E7
Am
dame tu bendicin.

file:///C|/Archivos%20de%20programa/eMule/Incoming/_cancionero-guitarra-bandurria_(1)/HoyEstoyAqui.htm01/11/2008 10:45:00 p.m.

Imgenes de ayer

IMGENES DE AYER

(Evaristo Ramos Muoz, Tuna de Magisterio de

Sevilla)

E
B7
E
E7
Recuerdo una cancin que cantbamos entonces,
A
C#7
F#m
hablaba de un balcn adornado con faroles,
B7
E / C#7
recuerdo aquel pardillo que no paraba de llorar,
F#m
F#7
B7
recuerdo unas mujeres que no estaban nada mal.

Recuerdo
cansados
recuerdo
recuerdo

E
B7
E
E7
como ayer los mil parches en Raimundo,
A
C#7
F#m
de vivir aventuras por el mundo,
B7
E C#7
aquel preludio de amor que empez en un cantar,
F#m
F#7
B7
aquella flor que no tardaste en deshojar.

B7

B7
E
Pero quiero volver a vivir aquellos tiempos
volver a conocer )
B7
E
E7
B7
E E7
imgenes de ayer que estn en mi pensamiento,
que senta al cantar )
A
E
A
E
C#7
y djame vivir porque aun soy un galante
revivir un nuevo abril )
C#7
F#m
F#7
B7
F#7
B7
y mientras el cuerpo aguante ser tuno hasta morir.
guitarra llorar)

B7
E
Pero quiero volver a vivir aquellos tiempos
B7
E

( Pero quiero

( la ilusin

( y quiero
F#m
( con mi

E7

file:///C|/Archivos%20de%20programa/eMule/Incoming/_cancionero-guitarra-bandurria_(1)/ImagenesDeAyer.htm (1 de 2)01/11/2008 10:45:01 p.m.

Imgenes de ayer

imgenes de ayer que estn en mi pensamiento,


A
E
y quiero revivir aquellas noches de luna
C#7
F#m
B7
E
que cantando con la tuna me senta yo feliz.

E
B7
E
E7
Hoy vuelvo a recordar aquellas juergas de antao,
A
C#7
F#m
que el tiempo no ha logrado borrar en tantos aos,
B7
E C#7
recuerdo aquella ronda de amor debajo de un balcn,
F#m
F#7
B7
al son de nuestras voces se rindi tu corazn.

E
B7
E
E7
Todo ello vuelve a mi en esta noche de luna,
A
C#7
F#m
cantando en mi guitarra canciones de la tuna,
B7
E C#7
las lgrimas me invaden aqu, sentado en mi silln,
F#m
F#7
B7
y me pongo a llorar recordando mi ilusin.

INTRODUCCIN:

B7, E, B7, E, E7, A, E, C#7, F#m, B7, E

file:///C|/Archivos%20de%20programa/eMule/Incoming/_cancionero-guitarra-bandurria_(1)/ImagenesDeAyer.htm (2 de 2)01/11/2008 10:45:01 p.m.

Irresistible

IRRESISTIBLE

(Pedro Flores)

C
G7
Desde el cielo he recibido la noticia de
F
Fm
C
que un ngel se ha escapado sin querer.
A7
Dm
Y que anda perdido por la Tierra,
G7
C
lo que tiene es que se viste de mujer.

D7
Yo conozco una criatura que yo
F
Fm
y que cada vez que yo la puedo
A7
me parece que estoy mirando un
G7
C
el ngel de mi querer.

G
he visto
C
ver,
Dm
ngel,

G7
C
Pero yo no soy ms que un infeliz,
G7
C
que no puedo ms que decirte as:
A7
Dm
Dios te guarde criatura irresistible,
G7
C
Dios te bendiga, mujer.

El
de
La
la

C
G7
consuelo que me queda es que he podido ver
F
Fm
C
cerca a la ms hermosa mujer.
A7
Dm
criatura ms linda que yo he visto,
G7
C
figura ms henchida de placer.

D7
G
Es tan rara, tan sencilla y tan hermosa como
file:///C|/Archivos%20de%20programa/eMule/Incoming/_cancionero-guitarra-bandurria_(1)/Irresistible.htm (1 de 2)01/11/2008 10:45:01 p.m.

Irresistible

F
Fm
C
la ms linda rosa de un vergel.
A7
Dm
Que me muera si al verla yo no tiemblo,
G7
C
Oh! que preciosa mujer.

Pero yo no soy ms que un infeliz...

file:///C|/Archivos%20de%20programa/eMule/Incoming/_cancionero-guitarra-bandurria_(1)/Irresistible.htm (2 de 2)01/11/2008 10:45:01 p.m.

Isa de Candidito

ISA DE CANDIDITO

G
C
D7
Asmate a la ventana cara de luna redonda,
G
que el lucero que te ronda, lucero de la maana.
G
C
D7
Asmate a la ventana cara de redonda luna,
G
que el lucero que te alumbra, lucero de la maana.

C
D7 / Cm / D7 / Cm / D7
Para que me acariciaste diciendo que,
G
diciendo que me queras.
C
D7 / Cm / D7 / Cm / D7
Para que me acariciaste diciendo que,
G
diciendo que me queras.
C

D7 / Cm / D7 / Cm / D7
Si en tu pecho se encontraba otro hombre que,
G
otro hombre que me ofenda.
C
D7 / Cm / D7 / Cm / D7
Otro hombre que me ofenda diciendo que,
G / C (Modulacin a C)
diciendo que te quera.

Para qu me quieres, para qu,


F
G7
para qu me engaas,
C
para qu me dices que vuelva maana.

|
|
| BIS
|
|

G7
Y si quieres que te quiera sin que nadie te llegase a comprender,
C
file:///C|/Archivos%20de%20programa/eMule/Incoming/_cancionero-guitarra-bandurria_(1)/IsaDeCandidito.htm (1 de 2)01/11/2008 10:45:01 p.m.

Isa de Candidito

cuando quieras te preparas que yo siempre estoy dispuesto pa correr.


F G7
Vivan las canciones de tenor, viva la alegra,
C
en la calle de Correos me compr unas zapatillas,
C7
F
zapatillas de charol y el delantal,
G7
C
y el vestido blanco y una paoleta para el carnaval.

INTRODUCCIN: G, C, D7, G, C, D7, G

file:///C|/Archivos%20de%20programa/eMule/Incoming/_cancionero-guitarra-bandurria_(1)/IsaDeCandidito.htm (2 de 2)01/11/2008 10:45:01 p.m.

Islas Canarias

ISLAS CANARIAS

(Jos M. Tarridas)

E
Am
Ay, Canarias! la tierra de mis amores,
B7
Em / B7 / Em / B7
ramo de flores que brotan de la mar.

Em
Am
B7
Em
Vergel (Ay, mi vergel sin par) de belleza sin par,
D
C7
B7
Am
C
B7
son nuestras Islas Canarias, que hacen despierto soar.

E
Am
B7
Em
Jardn (bello jardn en flor) ideal siempre en flor,
D
D7
G
B7
E
son tus mujeres las rosas, luz del cielo y del amor.
B7
E
Islas Canarias, Islas Canarias.

(BIS)

E
A B7
El corazn de los guanches, [Islas Canarias, Islas Canarias]
E
y el murmullo de la brisa. [Islas Canarias, Islas Canarias]
E
A F#m F#7 B7
El corazn de los guaaaaaaaaaaanches, [Islas Canarias, Islas
Canarias]
F#m
B7 E
y el murmullo de la brisa. [Islas Canarias, Islas Canarias]

Em
D C B7
Suspiran todos amaaantes, [Islas Canarias, Islas Canarias]
E
por el amor de un Isa. [Islas Canarias, Islas Canarias]

|
| BIS
|
|

E
A F#m B7
Desde la cumbre brava,
E
file:///C|/Archivos%20de%20programa/eMule/Incoming/_cancionero-guitarra-bandurria_(1)/IslasCanarias.htm (1 de 2)01/11/2008 10:45:01 p.m.

Islas Canarias

hasta el mar que nos abraza.


E
A F#m F#7 B7
Desde la cumbre brava,
F#m
B7 E
hasta el mar que nos abraza.

Em
D C B7
No hay tierra como la ma,
E
ni raza como mi raza.

|
| BIS
|
|

Instrumental: E, A, B7, E, A, B7, E

E
Am
B7
Ay! mis siete Islas Canarias,
E
con el Pico Teide de guardin,
Am
B7
son siete hermosos corazones
E
que palpitan al mismo comps.
Am
E
Mis siete Islas Canarias!

file:///C|/Archivos%20de%20programa/eMule/Incoming/_cancionero-guitarra-bandurria_(1)/IslasCanarias.htm (2 de 2)01/11/2008 10:45:01 p.m.

Jams, jams

JAMS, JAMS

(Chucho Navarro)

C#7
F#m
62, 50, 51, 52
Si quieres separar
E
nuestro destino,
G#
ya nunca me vers
C#m Cm Bm E7
en tu camino.

A
T vivirs sin m
B7
yo morir sin ti
E
Ay! es el destino.
C#7
F#m 62, 50, 51,
Mas nunca me vers,
E
en tu camino.

52

B7

B7

G#
Yo no regresar (jams, jams),
C#m
a ver que cosa fue (de ti, de ti),
F#
t nunca me vers (jams, jams, jams),
B7 / BM6
nunca jams.

file:///C|/Archivos%20de%20programa/eMule/Incoming/_cancionero-guitarra-bandurria_(1)/JamasJamas.htm01/11/2008 10:45:01 p.m.

Jota de la uva

JOTA DE LA UVA

A
De la uva sale el vino,
Bbd
Bm
de la aceituna el aceite,
E7
y de mi corazn sale ay!
Bm
E7
A
cario para quererte.

En todo el lugar se suena


A7
D
que nos queremos t y yo,
A F#7
nigalo t, vida ma,
Bm
E7
A
que tambin lo niego yo.

A
Eres alta y buena moza
Bbd
Bm
pero no presumas tanto,
E7
que tambin las buenas mozas, ay!
Bm
E7
A
se quedan pa vestir santos.

Eres ms chica que un huevo


A7
D
y ya te quieres casar,
A
F#7
anda, ve y dile a tu madre
Bm
E7
A
que te ensee a trabajar.

A
Anda diciendo la gente
file:///C|/Archivos%20de%20programa/eMule/Incoming/_cancionero-guitarra-bandurria_(1)/JotaDeLaUva.htm (1 de 2)01/11/2008 10:45:02 p.m.

Jota de la uva

Bbd
Bm
que tienes un olivar,
E7
y el olivar que tu tienes, ay!
Bm
E7
A
es que te quieres casar.

No te apures mi serrana,
A7
D
que ese novio llegar,
A F#7
y aunque no tengas dinero
Bm
E7
A
contigo se casar.

file:///C|/Archivos%20de%20programa/eMule/Incoming/_cancionero-guitarra-bandurria_(1)/JotaDeLaUva.htm (2 de 2)01/11/2008 10:45:02 p.m.

Cancion

LA MORENA DE MI COPLA

(Jofre / Castellanos)

E
Julio Romero de Torres
F
E
pint_a la mujer morena,
con los ojos de misterio
G
F
E
y el alma llena de pena.

53

52

50

G7
C
Puso en sus manos de bronce
E
la guitara cantaora,
F
E
y_en su bordn un suspiro,
F
E
Dm / F / B7 / Dm / E / F / E
y_en su alma una dolora.
A
Bbdim
E7
Morena, la de los rojos claveles,
A
la de la reja florida,
Bbdim E7
la reina de las mujeres.
Bm E7
A
Morena la del bordado mantn,
A7
D
Dm
la de la alegre guitarra,
A
E7
A
E7 / A
la del clavel espaol.
E
Como escapada de un cuadro,
F
E
y en el sentir de la copla,
toda Espaa la venera,
G
F
E
53
y toda Espaa la adora.

52

50

G7
C
Trenza con su taconeo
E
la seguidilla gitana,
F
E
con sus cantares morunos,
F
en la venta de

INTRODUCCIN: E / F / E / E / F / E / 60 62 64 / Am / 53 52 50 / G / 52 50 63 / F /
50 63 61 / E / F / E
CIFRADOS

file:///C|/Archivos%20de%20programa/eMule/Incoming/_cancionero-guitarra-bandurria_(1)/Julio.html (1 de 2)01/11/2008 10:45:02 p.m.

Cancion

|-------0-2-3-5-7--5-8-5-7--------0-5-7--5-8-5-7--------0-2-3--3-7-3-5--2-5-2-3--3-20--|-0-2-4---------------------0-2-4-----------------0-2-4-------------------------------3|----------------------------------------------------------------------------------------

|----------0--------|-1-0--1-3---3-1-0--|--------------------

Julio Romero de Torres pint_a la mujer morena con los ojos de misterio y_el alma llena
|-2-2---2-2-2--0--3--2---2---5---5--3-5---3-3-2--2---2--2-2---2--0--3-2---2---5--2----0|-----------------------------------------------------------------------------------3--|----------------------------------------------------------------------------------------

de pena. Puso_en sus manos de bronce la guitarra canta_o_ora y_en su bordn un suspiro
|----------------------0-0-------3--3--3---5-7--7--5--3-5-3-2--5----3--2--3--2---0---2-|-3--1-0---1--1----3---------3-----------------------------------------------------4---|----------------------------------------------------------------------------------------

y_en su alma_una dolora


Morena la de
|-0----2-0---2--0----------------0-5-8-7-6--------0-2-5--3-20--------------------------|------------------3-1-0---0-2-4------------0-2-4--------------3-1-0--1-0---0-2-2--0-2-|--------------------------------------------------------------------------4------------

los rojos claveles la de la reja florida la reina de las muje_eres. Morena la del
|-------------------------------------0-0--4--7--5--4--2---0-20------------------------|-0---3-3----0-4-4---0--2--0--4-4---2----------------------------4----0-2-2--0-2-------|----------------------------------------------------------------------------------------

bordado mantn la de la_alegre guitarra la del clavel espaol.


|------------0---0--2---4--7--5---4-7--5--4--2----0-2--0----0----|-0--4-4--2-----------------------------------------------4------|-----------------------------------------------------------------

file:///C|/Archivos%20de%20programa/eMule/Incoming/_cancionero-guitarra-bandurria_(1)/Julio.html (2 de 2)01/11/2008 10:45:02 p.m.

Lgrimas negras

LGRIMAS NEGRAS

(Miguel Matamoros)

Am
A7
Dm
Aunque t me has dejado en el abandono,
G7
C
E7
aunque t has muerto todas mis ilusiones,
Am
A7
Dm
en vez de maldecirte con justo encono,
Am
en mis sueos te colmo,
B7
E7
Am
en mis sueos te colmo de bendiciones.

A7
Dm
Sufro la inmensa pena de tu extravo,
G7
C
siento el dolor profundo de tu falsa,
B7
E7
y lloro sin que sepas que el llanto mo
Dm
Am
tiene lgrimas negras,
F7
E7
Am
tiene lgrimas negras como mi vida.

Am
E7
T me quieres dejar, yo no quiero sufrir,
Dm
Am
E7
Am
contigo me voy mi santa, aunque me cueste el morir.
Am
E7
T me quieres dejar, yo no quiero sufrir,
Dm
Am
E7
Am
mira mulata si me dejas, te tendrs que arrepentir.

Am
E7
Yo no quiero sufrir, y t me quieres dejar,
Dm
Am
E7
Am
mira mulata si me dejas, yo me voy a suicidar.
Am
E7
T me quieres dejar, yo no quiero sufrir,
Dm
Am
E7
Am
contigo me voy mi santa, aunque me cueste el morir.

file:///C|/Archivos%20de%20programa/eMule/Incoming/_cancionero-guitarra-bandurria_(1)/LagrimasNegras.html01/11/2008 10:45:02 p.m.

Lamento borincano

LAMENTO BORINCANO

(R. Hernndez)

Dm
C
A#7
A7
Dm A7
Sale loco de contento con su cargamento para la ciudad, para la
ciudad.
Dm
C
A#7
A7
Dm
Lleva en su pensamiento todo un mundo lleno de felicidad, de
felicidad.
C
A#7
A7
Piensa remediar la situacin
D
de su hogar que es toda su ilusin, s.

Y alegre el jibarito va,


B7
Em
A7
cantando as, diciendo as, riendo as por el camino:
Em
A7
Em
A7
"Si yo vendo la carga, mi Dios querido,
Em
A7
D
un traje a mi viejita voy a comprar".

Y alegre tambin su yegua va


B7
Em A7
al presentir que aquel cantar es todo un himno de alegra,
Em
A7
Em A7
en esto les sorprende la luz del da
Em
A7
D
y llegan al mercado de la ciudad.

Dm
C
A#7
A7
Dm A7
Pasa la maana entera sin que nadie quiera su carga comprar, su
carga comprar.
Dm
C
A#7
A7
Dm
Todo, todo est desierto el pueblo est lleno de necesidad, de
necesidad.

file:///C|/Archivos%20de%20programa/eMule/Incoming/_...cionero-guitarra-bandurria_(1)/LamentoBorincano.html (1 de 2)01/11/2008 10:45:02 p.m.

Lamento borincano

A#7
A7
Se oye este lamento por doquier
D
de su desdichada Borinqun, s.

Y triste el jibarito va,


B7
Em
A7
cantando as, diciendo as, llorando as por el camino:
Em
A7
Em
A7
Qu ser de Borinqun mi Dios querido?
Em
A7
D
Qu ser de mis hijos y de mi hogar?"

Borinqun, la tierra del Edn, la que al cantar el gran Gautier,


B7
Em
A7
llam la perla de los mares,
Em
A7
ahora que t te quedas con mis pesares,
Em
A7
D
djame que te cante yo tambin, (BIS)
Gm
D
yo tambin.

INTRODUCCIN:

Dm, A7, Dm, A7, Dm, A7, Dm

file:///C|/Archivos%20de%20programa/eMule/Incoming/_...cionero-guitarra-bandurria_(1)/LamentoBorincano.html (2 de 2)01/11/2008 10:45:02 p.m.

Limea

LIMEA

(Augusto Polo Campos)

D
A7
D D7
Limea que tienes alma de tradicin,
G
A7
D B7
repican las castauelas de tu tacn.
Em
A7
Pasito a paso vas caminando
D
por la vereda que va entonando,
A7
como si fuera un bordn,
D
A7
D D7
para bailar marineras por San Antn.

G
Boquita de caramelo, cutis de seda,
D
B7
magnolia que se ha escapado de la alameda
Em
A7
en tu boquita hay un pauelo,
D
que enamorado llega hasta el cielo,
A7
perfumado de jazmn,
D
A7
D
para bailar marineras por San Martn.

file:///C|/Archivos%20de%20programa/eMule/Incoming/_cancionero-guitarra-bandurria_(1)/Limena.html01/11/2008 10:45:02 p.m.

Lisboa antigua

LISBOA ANTIGUA

(J. Galhardo / A. do Vale / Ral Portela)

Am
E7 Dm
E7
Am
Lisboa antigua reposa llena de encanto y belleza.
G
F
E7
Am
Que fuiste hermosa al sonrer y al lucir tan airosa.
Dm
El velo de la nostalgia
E7
A
cubre tu rostro de linda princesa.

A#d
E7
No volvers,
A
Lisboa antigua y seorial
A#d
E7
a ser morada feudal,
A A7
a tu esplendor real.

D
Dm
E7
A
Las fiestas y los lucidos saraos,
Bbd
E7
y los pregones al amanecer,
A
ya nunca volvern.

file:///C|/Archivos%20de%20programa/eMule/Incoming/_cancionero-guitarra-bandurria_(1)/LisboaAntigua.html01/11/2008 10:45:03 p.m.

Llorarn las estrellas

LLORARN LAS ESTRELLAS

Gm
A7
Dm
D7
Tantos aos disfrutando entre tus brazos,
Gm
C
F
tantos aos entregado slo a ti,
Gm
Dm
y sin darnos cuenta los caminos se acabaron,
Gm
A7
y sin darnos cuenta nuestra estrella va a partir.

Gm
A7
Dm
D7
Tan solo un adis yo te dar cuando te vayas,
Gm
C
G
tan solo un instante borrar una eternidad.
Gm
Dm
Y ser un silencio mucho ms que mil palabras,
Gm
A7
y tu despedida el ms amargo despertar.

Bm
G
A7
Llorarn las estrellas y siguiendo tu huella,
D
Bm
G
A7
hallars el camino en el destino de otros brazos.
D
Bm G
A7
Estarn contigo cuando te hayas ido,
D
Bm
G
A7
y pasar el tiempo como el viento en el esto.

Llorarn las estrellas, y siguiendo tu huella


Hallars el destino en el camino de otros brazos.
D
Bm G
A7
Estarn contigo cuando te hayas ido
D
Gm
G
A7
Y pasar el tiempo como el viento en el esto.

|
| CAPELLA
|

Gm
A7
D
Un instante borrar una eternidad.

file:///C|/Archivos%20de%20programa/eMule/Incoming/_cancionero-guitarra-bandurria_(1)/LloraranLasEstrellas.htm01/11/2008 10:45:03 p.m.

La llorona

LA LLORONA

Am
Dm
Todos me llaman el negro, llorona,
Am
E7
negro pero carioso.

|
| BIS
|
|

Am
G
Yo soy como el chile verde, llorona,
F
E7
picante pero sabroso.
Am
La, la, la, la, la, la, la.

|
| BIS
|
|

Am
Dm
Salas del templo un da, llorona,
Am
E7
cuando al pasar yo te vi.

|
| BIS
|
|

Am
G
Tan lindo gipil llevabas, llorona,
F
E7
que la Virgen te cre.
Am
La, la, la, la, la, la, la.

|
| BIS
|
|

Am
Dm
La pena y lo que no es pena, llorona,
Am
E7
todo es pena para m.

|
| BIS
|
|

Am
G
Ayer lloraba por verte, llorona,
F
E7
y hoy lloro porque te vi.
Am
La, la, la, la, la, la, la.

|
| BIS
|
|

Am
Dm
A un santo Cristo de piedra, llorona,
Am
E7

|
| BIS
|

file:///C|/Archivos%20de%20programa/eMule/Incoming/_cancionero-guitarra-bandurria_(1)/Llorona.html (1 de 2)01/11/2008 10:45:03 p.m.

La llorona

mis penas le cont yo.

Am
G
Cuan no seran de negras, llorona,
F
E7
que el Santo Cristo llor.
Am
La, la, la, la, la, la, la.

|
| BIS
|
|

Am
Dm
Ay de mi llorona, llorona,
Am
E7
llorona de azul celeste.

|
| BIS
|
|

Am
G
Aunque la vida me cueste, llorona,
F
E7
yo no he de dejar de quererte.
Am
La, la, la, la, la, la, la.

|
| BIS
|
|

file:///C|/Archivos%20de%20programa/eMule/Incoming/_cancionero-guitarra-bandurria_(1)/Llorona.html (2 de 2)01/11/2008 10:45:03 p.m.

Lo dudo

LO DUDO

(Chucho Navarro)

Am
A7
Dm
Lo dudo, lo dudo, lo dudo,
E7
que tu llegues a quererme
Am
como yo te quiero a ti.

Am
A7
Dm
Lo dudo, lo dudo, lo dudo,
Am
E7
que halles un amor ms puro,
Am
como el que tienes en m.

Dm
G7
C
Hallars mil aventuras sin amor,
E7
pero al final de todas
Am
solo tendrs dolor.

Dm
G7
C
Te darn de los placeres frenes,
B7
F
mas no ilusin sincera,
E7
como la que te di.

file:///C|/Archivos%20de%20programa/eMule/Incoming/_cancionero-guitarra-bandurria_(1)/LoDudo.html01/11/2008 10:45:04 p.m.

Luna de Espaa

LUNA DE ESPAA

(Moraleda / Llovet / Lara)

Am
La Luna es una mujer
Dm
y por eso el Sol de Espaa
E7
Am
anda que bebe los vientos
F
E7
por si la Luna le engaa.

Ay! le engaa porque,


Am
porque en cada anochecer
despus de que
E7
sale la Luna a
F
E7
con andares de

Dm
el Sol se apaga
Am
la calle
Am
G7
gitana.

C
C7
F
Cuando la Luna sale, sale de noche,
C
un amante le aguarda en cada reja,
Am
G7
Luna, Luna de Espaa cascabelera,
C
F / G
Luna de ojos azules, cara morena.

C
C7
F
Y se oye a cada paso la voz de un hombre,
C
que a la Luna que sale le da su queja,
Am
G7
Luna, Luna de Espaa cascabelera,
C
E7 (Final Fm)
Luna de ojos azules, cara morena.

file:///C|/Archivos%20de%20programa/eMule/Incoming/_cancionero-guitarra-bandurria_(1)/LunaDeEspana.html (1 de 2)01/11/2008 10:45:04 p.m.

Luna de Espaa

Fm
C
Luna de Espaa, mujer.

INTRODUCCIN:
60, E7 (Bis)

E, Am, G, F, E7, E7 (Bis) / E, Am, Dm, 50, 63, 61,

file:///C|/Archivos%20de%20programa/eMule/Incoming/_cancionero-guitarra-bandurria_(1)/LunaDeEspana.html (2 de 2)01/11/2008 10:45:04 p.m.

Luna de miel

LUNA DE MIEL

Nunca
G
nunca
Nunca
nunca

G
sabr
D
sabr
G
sabr
G
sabr

(M. Theodorakis)

A7
D
como tu alma ha encendido mi noche,
G
D
A7
D
el milagro de amor que ha nacido por ti.
A7
D
porque siento tu pulso en mis venas,
A7
en que viento lleg este querer.

G
A7
D
Mi vida llama a tu vida y busca tus ojos,
G
F#m
G
D
A7
D
besa tu suelo, reza en tu cielo, late en tu sien.

Bm

F#m
Bm
Ya siempre unidos, ya siempre,
A7
mi corazn con tu amor.

G
A7
D
Yo se que el tiempo es la brisa que dice a tu alma,
G
F#m
G
D
ven hacia m, que as el da vendr,
A7
D
que amanece por ti.
G
A7
D
La luna de miel.

G
A7
D
Nunca sabr que misterio me trae esta noche.
G
A7
Nunca sabr como vino esta luna de miel.
G
A7
D
La luna brilla en tus ojos y en mis desvelos,
G
F#m
G
D
A7
D
besa tu suelo, reza en tu cielo, late en tu sien.

file:///C|/Archivos%20de%20programa/eMule/Incoming/_cancionero-guitarra-bandurria_(1)/LunaDeMiel.html01/11/2008 10:45:04 p.m.

Madrecita

MADRECITA

(Oswaldo Farrs)

C
G7
C
Madrecita del alma querida
F
G7
C
en mi pecho yo llevo una flor,
F
G7
C
Am
no te importe el color que ella tenga,
Dm
F
G7
porque al fin t eres, madre, una flor.

C
G7
C
Tu cario es mi bien madrecita,
F
G7
C
en mi vida t has sido y sers
F
G7
C
Am
el refugio de todas mis penas
Dm
G7
C
y la dicha de amor y verdad.

Dm
G7
C
Aunque amores yo tenga en la vida
Dm
G7
C C7
que me llenen de felicidaaad,
F
G7
C
A7
como el tuyo jams madrecita,
Dm
G7
C
como el tuyo no habr de encontrar.

file:///C|/Archivos%20de%20programa/eMule/Incoming/_cancionero-guitarra-bandurria_(1)/Madrecita.html01/11/2008 10:45:04 p.m.

Madrid

MADRID

(A. Lara)

C
C#d
G7
Cuando llegues a Madrid chulona ma,
Dm
G7
C
voy a hacerte emperatriz de Lavapis,
Am7
Em
y adornarte con claveles la Gran Va,
B7
Em G7
y a baarte con vinillo de Jerez.

C
C#d
G7
En Chicote un agasajo postinero,
Dm
G7
C
con la crema de la intelectualidad,
C7
F
y la gracia de un piropo retrechero,
G7
F
C
G7
C
ms castizo que la calle de Alcal.

F
Madrid, Madrid, Madrid,
Abd
Gm
pedazo de la Espaa en que nac,
C7
por algo te hizo Dios,
F
la cuna del requiebro y del chotis.

Madrid, Madrid, Madrid,


D7
Gm
en Mjico se piensa mucho en ti,
F
por el sabor que tienen tus verbenas,
D7
Gm7
C7
F F7
por tantas cosas buenas que soamos desde aqu,
Bb
F
y vas a ver lo que es canela fina,
D7
Gm7
C7
F / C7 / F
y armar la tremolina cuando llegues a Madrid.

file:///C|/Archivos%20de%20programa/eMule/Incoming/_cancionero-guitarra-bandurria_(1)/Madrid.html (1 de 2)01/11/2008 10:45:05 p.m.

Madrid

file:///C|/Archivos%20de%20programa/eMule/Incoming/_cancionero-guitarra-bandurria_(1)/Madrid.html (2 de 2)01/11/2008 10:45:05 p.m.

Magdalena

MAGDALENA

(A. Amorim / A. Macedo)

Dm
Gm
Llorar como he llorado,
A7
Dm / A7 / Dm
nadie puede llorar.
D7
Gm
Amar como he amado,
A7
Dm
nadie puede amar.

D7
Lar, la la la,
lar, la l.

Gm
Lloraba que daba pena,
C
Lar, la la la, lar, la l,
F
por amor a Magdalena.

Dm
A#7
Ms ella me abandon
A7
y se marchit en mi corazn,
Dm D7
la ms linda flor.

Gm
La l, lara, la l,
Dm
la l, lara, la l,
A#7
A7
Dm
la, la la la l, la, la la l, la l.

C
C7
F
Magdalena fue como un ngel salvador,
file:///C|/Archivos%20de%20programa/eMule/Incoming/_cancionero-guitarra-bandurria_(1)/Magdalena.html (1 de 2)01/11/2008 10:45:05 p.m.

Magdalena

A7
y yo la adoraba
Gm
C7
barco sin timn
Gm
soy, Magdalena,

Dm F7
con fe,
F
D7
perdido en alta mar
A7
Dm
sin tu amor.

file:///C|/Archivos%20de%20programa/eMule/Incoming/_cancionero-guitarra-bandurria_(1)/Magdalena.html (2 de 2)01/11/2008 10:45:05 p.m.

Malaguea

MALAGUEA SALEROSA

(P. Galindo /E. Ramrez / E. Lecuona)

Em
B7
Em
Qu bonitos ojos tienes
E7
Am
debajo de esas dos cejas,
D7
G
debajo de esas dos cejas,
C
B7
qu bonitos ojos tienes.

Em
B7
Em
Ellos me quieren mirar,
E7
Am
pero si t no los dejas,
D7
G
pero si t no los dejas,
C
B7
ni siquiera parpadear.

Em
Malaguea salerosa
D7
besar tus labios quisiera,
G
besar tus labios quisiera,
C
B7
y decirte nia hermosa.
Em
eres linda y hechicera.

D7
Eres linda y hechicera,
G
eres linda y hechicera
C
B7
Como el candor de una rosa,
Em
malaguea salerosa.

file:///C|/Archivos%20de%20programa/eMule/Incoming/_cancionero-guitarra-bandurria_(1)/Malaguena.html (1 de 2)01/11/2008 10:45:05 p.m.

Malaguea

Em
B7
Em
Si por pobre me desprecias
E7
Am
yo te concedo razn,
D7
G
yo te concedo razn
C
B7
si por pobre me desprecias.

Em
B7
Em
Yo no te ofrezco riquezas,
E7
Am
te ofrezco mi corazn,
D7
G
te ofrezco mi corazn
C
B7
a cambio de mi pobreza.

file:///C|/Archivos%20de%20programa/eMule/Incoming/_cancionero-guitarra-bandurria_(1)/Malaguena.html (2 de 2)01/11/2008 10:45:05 p.m.

Las maanitas

LAS MAANITAS

(Popular)

Estas son las maanitas


que cantaba el Rey David,
y hoy por ser da de tu santo
te las cantamos a ti.

|
|
|
| CAPELLA
|
|
|

D7
G
Despierta mi bien despierta,
D7
G
mira que ya amaneci,
C
G
ya los pajarillos cantan
D7
G
la Luna ya se escondi.

Que linda est la maana


D7
en que vengo a saludarte
Am
D7
venimos todos con gusto
G
y placer a felicitarte.

El da en que t naciste
D7
nacieron todas las flores
Am
D7
en la pila del bautismo
G
cantaron los ruiseores.

D7
Ya viene amaneciendo
file:///C|/Archivos%20de%20programa/eMule/Incoming/_cancionero-guitarra-bandurria_(1)/Mananitas.html (1 de 2)01/11/2008 10:45:05 p.m.

Las maanitas

C
ya la luz del da nos dio,
G
levntate de maana
D7
G
mira que ya amaneci.

D7
Con jazmines y flores
C
hoy te vengo a saludar,
G
hoy por ser da de tu santo
D7
G
te venimos a cantar.

file:///C|/Archivos%20de%20programa/eMule/Incoming/_cancionero-guitarra-bandurria_(1)/Mananitas.html (2 de 2)01/11/2008 10:45:05 p.m.

Manoln

MANOLN

A
E7
A
Manoln, dueu d'esti bar,
Bbd
E7
te venimos a felicitar,
Bm
E7
a desearte un prospero ao nuevo,
Bm
E7
A
unas felices fiestas y una feliz Navidad.

A
E7
A
Manoln, dueu d'esti bar,
A7
D
no te creas que te vamos a pagar,
A
anda y que te den mucho pol culo,
F#
Bm
E7
y con mucho, mucho, mucho disimulo,
A E7 / A
vuelve nuestras copas a llenar.

CIFRADOS
Manol_n dueu de_esti ba_ar, te venimos a felicitar, a desearte_un prspero_ao
|-4-2-0--------------------------4--2-0-----------------5--4-2---0--------0-----------|-------4---2--0---2---4--2-0-----------4--2--0-2-0-4-------------------4-----4-2-----|
|
|-0------------------------------0----------------------2-0---------------------------|---4-2-0--------------0------------4-2-0-----------0--------4---2------0--2-0--------|-----------3--2---3------3-2--------------3--2-3-2-----------------------------3------

nuevo, unas felices fiestas y_una feliz Navidad. Manol_n dueu de_esti ba_ar, no te
|-0-----------0-------0-------------2-0------------4-2-0--------------------------4-2-|----4--2-4-----4-2-------4---4--4--------4-2-0----------4---2--0---2---4--20---------|
|
|--------------------------------------------------0-----------------------------0----|-2--0----0---2-0-----2---0---0--0--4-2---0----------4-2-0--------------0-----------4-|-------3---------3-------------------------3-2--------------3--2---3------32----------

file:///C|/Archivos%20de%20programa/eMule/Incoming/_cancionero-guitarra-bandurria_(1)/Manolin.html (1 de 2)01/11/2008 10:45:06 p.m.

Manoln

cre_as que te vamos a pagar anda_y que te den mucho pol culo y con mucho, mucho, mucho
|--0-0----0--0--2-0--2--4-5--5---4----2--4--5---7--7--5---4-2-0--2---4--2---0--2---4-5|--------------------------------------------------------------------------------------|
|
|-----------------------0-2--2---0-------0--2---4--4--2---0----------0-------------0-2|--2-2----2--2--4-2--4----------------4---------------------4-2--4------4---2-4--------

disimulo, vuelve nuestras copas a llenar.


|-5-4-2-----2---0-------0---2-4--4---2-0----|-------4----------4------------------------|
|
|-2-0-------------------------0--0----------|-----4-0---4---2--0----2---4--------4-0-----

file:///C|/Archivos%20de%20programa/eMule/Incoming/_cancionero-guitarra-bandurria_(1)/Manolin.html (2 de 2)01/11/2008 10:45:06 p.m.

Manolo

MANOLO

(Ruz de Luna)

B7
Em
Cuando la Tuna, Tuna, pasea por las calles,
Am
Em
salen las chicas al balcn,
B7
Em
ninguna pensara que bajo de la capa,
B7
Em
vaya escondido un empolln.

B7
Em
Cuando la Tuna, Tuna, pasea su alegra,
Am
Em
por las calles de la ciudad,
B7
Em
su juvenil encanto, amores femeninos,
B7
E
inflama con facilidad.

E
B7
Estudiante, estudiante, que te van a suspender,
F#m
B7
F#m
B7
E
pero al cabo, no te importe, si consigues un querer.
E7
A
Estudiante, estudiante, que te carguen no es lo peor,
B7
E
B7
E
pues seran ms denigrantes, las calabazas en el amor.

file:///C|/Archivos%20de%20programa/eMule/Incoming/_cancionero-guitarra-bandurria_(1)/Manolo.html01/11/2008 10:45:06 p.m.

Mara

MARA

Dm
Alternando con los libros,
A7
llevo un nombre de mujer,
Gm
A7
que me sirve de amuleto
Dm
a la hora de aprender.

C
Es un nombre
C
cinco letras
A7
cinco letras
A7
dentro de mi

F
muy cortito,
F
solo son,
Dm
que se esconden
D
corazn.

D
Ay, Mara, mi Mara,
Ebd
A7
dulce nombre de mujer,
Em
A7
que repito noche y da
Em
A7
D
suspirando sin querer.

D
Ay, Mara, mi Mara,
D7
G
cinco letras nada ms,
A7
cinco letras cariosas,
D
que no olvidar jams.

Dm
Cinco letras se cruzaron
file:///C|/Archivos%20de%20programa/eMule/Incoming/_cancionero-guitarra-bandurria_(1)/Maria.html (1 de 2)01/11/2008 10:45:06 p.m.

Mara

A7
en mi vida estudiantil
Gm
A7
que me llevan de cabeza
Dm
once meses y el de abril.

C
F
En el curso que corremos,
C
F
yo no se si aprobar,
A7
Dm
pero de esas cinco letras
A7
D
ni una sola olvidar.

file:///C|/Archivos%20de%20programa/eMule/Incoming/_cancionero-guitarra-bandurria_(1)/Maria.html (2 de 2)01/11/2008 10:45:06 p.m.

Mara Chuchena

MARA CHUCHENA

(Licho Jimnez)

E
B7
E
Estaba Mara Chuchena sentadita en la barranca,
B7
E
sentadita en la barranca, estaba Mara Chuchena,
B7
E
con su vestido en las piernas, recogiendo flores blancas,
B7
E
recogiendo flores blancas, estaba Mara Chuchena.

B7
Mara Chuchena se fue a baar
E
a orillas del agua, muy juntito al mar,
B7
Mara Chuchena se estaba baando,
E
y el pescador la estaba mirando, y le deca:
B7
Mara, Mara.
E
Ni techo tu casa, ni techo la ma,
B7
Ni techo tu casa, ni techo la ma;
E
Ni techo la casa de Mara Garca.

B7
E
Dime qu flor te acomoda, para rtela a cortar,
B7
E
para rtela a cortar, dime qu flor te acomoda,
B7
E
si Azucena o Amapola, oh maravilla del mar,
B7
E
para cuando t ests sola tengas con quin platicar.

B7
E
Por all sali volando una Calandria amarilla,
B7
E
una Calandria amarilla, por all sali volando,

file:///C|/Archivos%20de%20programa/eMule/Incoming/_cancionero-guitarra-bandurria_(1)/MariaChuchena.html (1 de 2)01/11/2008 10:45:06 p.m.

Mara Chuchena

B7
E
y en su piquito llevaba una Rosa de Castilla,
B7
E
y el viento la deshojaba como blanca maravilla.

A
B7 E
Ay, ay, ay!

file:///C|/Archivos%20de%20programa/eMule/Incoming/_cancionero-guitarra-bandurria_(1)/MariaChuchena.html (2 de 2)01/11/2008 10:45:06 p.m.

Mara la Portuguesa

MARA

LA

PORTUGUESA

(Carlos Cano)

B7
Em
En las noches de luna y clavel, de Ayamonte hasta Villarreal,
B7
Em
sin rumbo por el ro, entre suspiros, una cancin viene y va.
E7
Am D7
G 63 62 60
Que la canta Mara, al querer de un andaluz.
C
B7
Em / B7 / Em /
B7 / Em / 53, 52, 63, 60
Mara es la alegra y es la agona que tiene el Sur.

B7
Em
Que conoci a ese hombre, en una noche de vinho verde y calor,
B7
Em
y entre palma y fandango la fue enredando, le trastorn el corazn.
E7
Am D7
G 63 62 60
Y en las playas de Isla se perdieron los dos,
C
B7
E
donde rompen las olas bes su boca, y se entreg.

C#7 / C7 / B7
E
B7
Aay...
Mara la Portuguesa,
E
B7
C7 / B7
Desde Ayamonte hasta Faro, se oye este fado por
E
E7
donde bebe vinho amargo,
Am
D7
G
C
B7
B7
por qu canta con tristeza? Por qu esos ojos
E
B7
por un amor desgraciado, por eso canta, por eso

C#7 /

las tabernas,

C#7 / C7 /

cerrados?
Em
pena.

Em
D7
Fado porque me faltan sus ojos,
C
B7
fado porque me faltan su boca,
Am
Em 60 / 63 / 52 / 53
fado porque se fue por el ro,
B7
Em
53 / 52 / 63 / 60

file:///C|/Archivos%20de%20programa/eMule/Incoming/_...ionero-guitarra-bandurria_(1)/MariaLaPortuguesa.html (1 de 2)01/11/2008 10:45:07 p.m.

Mara la Portuguesa

fado porque se fue con la sombra.

B7
Em
Dicen que fue el "te quiero" de un marinero razn de su padecer,
B7
Em
y una noche en los barcos del contrabando al langostino se fue.
E7
Am D7
G 63 62 60
Y en las sombras del ro un disparo son,
C
B7
E
y de aquel sufrimiento naci el lamento de esta cancin.

Aay ...

INTRODUCCIN:
63, 60

B7, Em, B7, Em, E7, Am, D7, G, C, B7, Em, 53, 52,

file:///C|/Archivos%20de%20programa/eMule/Incoming/_...ionero-guitarra-bandurria_(1)/MariaLaPortuguesa.html (2 de 2)01/11/2008 10:45:07 p.m.

La Mari Carmen

MARI CARMEN

La Mari
la Mari
la Mari
la Mari

A
Carmen
Bm
Carmen
A
Carmen
Bm
Carmen

Bbd
no sabe
E7
no sabe
Bbd
no sabe
E7
no sabe

E7
coser,
A
bordar,
E7
querer,
A
hacer na.

A7
D
Mari Carmen, Mari Carmen
A
ya te lo deca yo
F#
Bm
los canallas de Industriales
E7
A / E7 / A
van a ser tu perdicin.

La Mari Carmen...

A7
D
Y en el examen final
A
de mi carrera amorosa
F#
Bm
tu sers mi tribunal
E7
A / E7 / A
Mari Carmen nia hermosa.

La Mari Carmen...

A7
D
Mari Carmen, Mari Carmen,
A
quien te ha visto y quien te ve,
file:///C|/Archivos%20de%20programa/eMule/Incoming/_cancionero-guitarra-bandurria_(1)/MariCarmen.html (1 de 2)01/11/2008 10:45:07 p.m.

La Mari Carmen

F#
Bm
antes me queras mucho
E7
A / E7 / A
y ahora no me puedes ver.

La Mari Carmen...

file:///C|/Archivos%20de%20programa/eMule/Incoming/_cancionero-guitarra-bandurria_(1)/MariCarmen.html (2 de 2)01/11/2008 10:45:07 p.m.

Mariposita

MARIPOSITA

(Maya Andina)

C
G
F
C
Qu bonitos ojos tienes te los robar,
C
G
F
C
qu bonitos labios tienes, te los besar.

Dm
Am
Dm
Am
Tengo miedo, miedo de amar,
C
G
Am
ya no quiero otra vez sufrir.

|
| BIS
|
|

G
Am
Toma libertad, antes de amar,
G
Am
vuela con el viento mariposita.

|
| BIS
|
|

G
Am
La ra lai la ra la la la . . .

file:///C|/Archivos%20de%20programa/eMule/Incoming/_cancionero-guitarra-bandurria_(1)/Mariposita.html01/11/2008 10:45:07 p.m.

La media vuelta

LA MEDIA VUELTA

(Jos Alfredo Jimnez)

D
A7
D
D7
Te vas porque yo quiero que te vayas,
G
B7
Em
a la hora que yo quiera te detengo,
A7
D
B7
yo se que mi cario te hace falta,
Em A7
D
porque quieras o no, yo soy tu dueo.

D
A7
D
D7
Yo quiero que te vayas por el mundo,
G
B7
Em
y quiero que conozcas mucha gente,
A7
D
B7
yo quiero que te besen otros labios,
Em
A7
D
D7
para que me compares, hoy como siempre.

G
B7
Em
Si encuentras un amor que te comprenda,
A7
D
y sientas que te quiere ms que a nadie,
B7
Em
entonces yo dar la media vuelta,
A7
D
y me ir con el Sol, cuando muera la tarde,
A7
D
B7
entonces yo dar la media vuelta,
Em A7
D
y me ir con el Sol, cuando muera la tarde.

D
A7
D
Te vas porque yo quiero que te vayas...

file:///C|/Archivos%20de%20programa/eMule/Incoming/_cancionero-guitarra-bandurria_(1)/MediaVuelta.html01/11/2008 10:45:07 p.m.

El men

EL MEN

(K. Zllner)

(Camarero), seor,
(camarero), seor.
(Qu hay para hoy?),
seor, un buen men.

(Solomillo) asado
(con patatas) fritas,
(sesos huecos), hgado,
liebre, chateaubriand.

Sopa de albondiguillas,
caldo de tortuga, sopa hngara,
consom de almejas,
gran cocido parisin,
huevos al gratn.

(Tenemos) pollo asao, asao, asao, asao,


con ensalada, buen men,
buen men, buen men, seor.

(pollo asao, asao,


con ensalada,
buen men, seor)

(Y) frescos calamares, gallo,


pescadilla frita, salmonetes, barbos,
salmonetes, barbos,
bacalao a la vizcana, atn, besugo,
truchas,
almejas, truchas, sbalo, langosta
a la americana,
y faisn relleno,
asao, asao.........
(asao, asao, asao))

(Frescos calamares
pescadilla frita,
ba.. atn, besugo,
sbalo, langosta,
a la americana,
pavo asao, asao, asao,
asao..............

Pavo asao, asao, asao, asao


con ensalada, buen men,
buen men, buen men, seor.

Frito de espinacas, berenjenas fritas,


file:///C|/Archivos%20de%20programa/eMule/Incoming/_cancionero-guitarra-bandurria_(1)/Menu.html (1 de 2)01/11/2008 10:45:08 p.m.

El men

habichuelas, frijoles y tortilla al ron.


Crema, tocino de cielo, mazapn, natilla,
hojaldre, franchispn, flan de avellanas,
frutas, queso roquefort y tambin gruyere.

(Y despus), y despus,
(buen helao), buen helao,
(y caf), y caf,
Buen provecho le haga a usted.
(Buen prove...................cho)
buen provecho
le haga a usted.

file:///C|/Archivos%20de%20programa/eMule/Incoming/_cancionero-guitarra-bandurria_(1)/Menu.html (2 de 2)01/11/2008 10:45:08 p.m.

Me voy pa'l pueblo

ME VOY PAL PUEBLO

(Mercedes Valds)

Am
D7
G E7
Me voy pal pueblo, hoy es mi da,
Am
D7
G
Voy a alegrar toda el alma ma.

|
| BIS
|
|

Am
D7
Tanto como yo trabajo
G
B7
Em
y nunca puedo irme al vaciln,
Am
D7
no se qu pasa con esta guajira,
G
B7
Em
que no le gusta el guateque y el ron.

Am
C
Ahora mismo la voy
G
B7
en su boho asando
Am
me voy pal pueblo
G
y cuando vuelva se

D7
a dejar
Em
maz,
C
D7
a tomarme un galn
B7
Em
acab el carbn.

Me voy pal pueblo ...

Am
D7
Desde el da en que nos casamos
G
B7
Em
hasta la fecha trabajando estoy.
Am
D7
Quiero que sepas que no estoy dispuesto,
G
B7
Em
a enterrarme en vida en un rincn.

Am
C
D7
Es lindo el campo, muy bien, ya lo se,
file:///C|/Archivos%20de%20programa/eMule/Incoming/_cancionero-guitarra-bandurria_(1)/MeVoyPalPueblo.html (1 de 2)01/11/2008 10:45:08 p.m.

Me voy pa'l pueblo

G
B7
Em
pero pal pueblo voy echando un pie.
Am
C
D7
Si tu no vienes mejor es as,
G
B7
Em
pues yo no se lo que ser de m.

Me voy pal pueblo ...

INTRODUCCIN:

Am, C, D7, G, B7, Em

(BIS)

file:///C|/Archivos%20de%20programa/eMule/Incoming/_cancionero-guitarra-bandurria_(1)/MeVoyPalPueblo.html (2 de 2)01/11/2008 10:45:08 p.m.

Mira que eres linda

MIRA QUE ERES LINDA

(Julio Brito)

E7
Mira que eres linda,
Am
que preciosa eres.
G
Verdad que en mi vida
F
Em
Dm
E / Am
no he visto mueca ms linda que t.

Con
que
con
con

E7
esos ojazos,
Am
parece soles,
F
Am
Ebd
esa mirada siempre enamorada,
E7
que miras t.

E7
Mira que eres linda,
Am
que preciosa eres,
G
F
estando a tu lado verdad que
Em
Dm
E7
me siento ms cerca de Dios.

C#d
Dm / E7
Porque eres divina,
Am
tan linda y primorosa,
Dm
F7
E7
que solo una rosa cada del cielo
Am / Dm / Am
fuera como t.

file:///C|/Archivos%20de%20programa/eMule/Incoming/_cancionero-guitarra-bandurria_(1)/MiraQueEresLinda.html01/11/2008 10:45:08 p.m.

Mis noches sin ti

MIS NOCHES SIN TI

(D. Ortiz / M T. Mrquez)

A
C#m
Bm
Sufro al pensar que el destino logr separarnos,
Bm7
E7
A
guardo tan bellos recuerdos que no olvidar.
Em
A7
D G7
Sueos que juntas forjaron tu alma y la ma,
A
F#7
Bm
y las horas de dicha infinita
E7
A
que aoro en mi canto y no han de volver.

A
C#m
Bm
Hoy que en mi vida tan solo qued tu recuerdo,
Bm7
E7
A
siento en mis labios tus besos que saben a miel.
Em
A7
D G7
Tu cabellera sedosa acaricio en mis sueos
A
F#7
Bm
y me estrechan tus brazos amantes
E7
A / C#7
al arrullo suave del tucunuhu.

F#m
C#7
F#m
Mi corazn en tinieblas te busca con ansia,
A
E7
A / A7
rezo tu nombre pidiendo que vuelvas a mi.
D
G7
A
Porque sin ti ya ni el sol ilumina mis das,
E7
y al llegar la aurora
Bm
E7
A
me encuentra llorando mis noches sin ti.

file:///C|/Archivos%20de%20programa/eMule/Incoming/_cancionero-guitarra-bandurria_(1)/MisNochesSinTi.html01/11/2008 10:45:08 p.m.

Mi viejo San Juan

MI VIEJO SAN JUAN

(N. Estrada)

E
F#m
G#m
En mi viejo San Juan cuntos sueos forj
C#7
F#m
en mis noches de infancia.
B7
Mi primera ilusin y mis cuitas de amor
E
son recuerdos del alma.

Una tarde part hacia extraa nacin,


E7
A
Am
pues lo quiso el destino.
E
C#7
F#m
Pero mi corazn se qued junto al mar
B7
E
54, 52, 50, 64, 62, 60, 60, 61
en mi viejo San Juan.

61 F#m
B7
E
60, 61
Adis (adis, adis), Borinqun querido (tierra de mi amor),
61 F#m
B7
E
Adis (adis, adis), mi diosa del mar (la reina del palmar).
E7
A Am
Me voy (ya me voy), pero un da volver,
E
C#7
F#m
a buscar mi querer, a soar otra vez,
B7
E
54, 52, 50, 64, 62, 60
en mi viejo San Juan.

E
F#m
G#m
Pero el tiempo pas y el destino burl
C#7
F#m
mi terrible nostalgia.
B7
Y no pude volver al San Juan que yo am,
E
pedacito de patria.

file:///C|/Archivos%20de%20programa/eMule/Incoming/_cancionero-guitarra-bandurria_(1)/MiViejoSanJuan.html (1 de 2)01/11/2008 10:45:08 p.m.

Mi viejo San Juan

Mi cabello blanque, ya mi vida se va,


E7
A
Am
ya la muerte me llama,
E
C#7
F#m
y no quiero morir alejado de ti
B7
E
54, 52, 50, 64, 62, 60, 60, 61
Puerto Rico del alma.

Adis...

INTRODUCCIN: 64, 54, C#7, 54, 62, F#m, 62, 50, 51, 52, B7, 62,
52, Si 7, 52, 60, E //
(1) 42, 42, 41, 40, C#7 // (2) 54, 52, 50, 64, 62,
60

file:///C|/Archivos%20de%20programa/eMule/Incoming/_cancionero-guitarra-bandurria_(1)/MiViejoSanJuan.html (2 de 2)01/11/2008 10:45:08 p.m.

Moliendo cafe

MOLIENDO CAF

(J. Manzo / H. Blanco)

Am
E7
Am
Cuando la tarde languidece, renacen las sombras,
A7
Dm
y en la quietud los cafetales vuelven a sentir,
BIS
G7
C
Am
es la triste cancin de amor de la vieja molienda,
F
B7
E7 (La 2 F / E7 / Am)
que en el letargo de la noche parece decir.

Dm
E7
Am
Una pena de amor y una tristeza,
Dm
E7
Am
lleva el zampo Manuel en su amargura,
B7
E7
pasa incansable la noche moliendo caf.

file:///C|/Archivos%20de%20programa/eMule/Incoming/_cancionero-guitarra-bandurria_(1)/MoliendoCafe.html01/11/2008 10:45:09 p.m.

|
|
|
|
|
|
|
|

La morena de mi copla

LA MORENA DE MI COPLA

(Jofre / Castellanos)

E
Julio Romero de Torres
F
E
pint_a la mujer morena,
con los ojos de misterio
G
F
E
53 52 50
y el alma llena de pena.
G7
C
Puso en sus manos de bronce
E
la guitara cantaora,
F
E
y_en su bordn un suspiro,
F
E
Dm / F / B7 / Dm / E / F / E
y_en su alma una dolora.
A
Bbd
E7
Morena, la de los rojos claveles,
A
la de la reja florida,
Bbd
E7
la reina de las mujeres.
Bm E7
A
Morena la del bordado mantn,
A7
D
Dm
la de la alegre guitarra,
A
E7
A
E7 / A
la del clavel espaol.
E
Como escapada de un cuadro,
F
E
y en el sentir de la copla,
toda Espaa la venera,
G
F
E
53 52 50
y toda Espaa la adora.
G7
C
Trenza con su taconeo
E
la seguidilla gitana,
F
E
con sus cantares morunos,
F
en la venta gaditana.

INTRODUCCIN: E, F, E / E, F, E, 60 62 64 / Am / 53 52 50 / G / 52 50 63 / F /
50 63 61 / E, F, E

file:///C|/Archivos%20de%20programa/eMule/Incoming/...cionero-guitarra-bandurria_(1)/MorenaDeMiCopla.html (1 de 2)01/11/2008 10:45:09 p.m.

La morena de mi copla

CIFRADOS
|-------0-2-3-5-7--5-8-5-7--------0-5-7--5-8-5-7--------0-2-3--3-7-3-5--2-5-2-3--3-20--|-0-2-4---------------------0-2-4-----------------0-2-4-------------------------------3|----------------------------------------------------------------------------------------

|----------0--------|-1-0--1-3---3-1-0--|--------------------

Julio Romero de Torres pint_a la mujer morena con los ojos de misterio y_el alma llena
|-2-2---2-2-2--0--3--2---2---5---5--3-5---3-3-2--2---2--2-2---2--0--3-2---2---5--2----0|-----------------------------------------------------------------------------------3--|----------------------------------------------------------------------------------------

de pena. Puso_en sus manos de bronce la guitarra canta_o_ora y_en su bordn un suspiro
|----------------------0-0-------3--3--3---5-7--7--5--3-5-3-2--5----3--2--3--2---0---2-|-3--1-0---1--1----3---------3-----------------------------------------------------4---|----------------------------------------------------------------------------------------

y_en su alma_una dolora


Morena la de
|-0----2-0---2--0----------------0-5-8-7-6--------0-2-5--3-20--------------------------|------------------3-1-0---0-2-4------------0-2-4--------------3-1-0--1-0---0-2-2--0-2-|--------------------------------------------------------------------------4------------

los rojos claveles la de la reja florida la reina de las muje_eres. Morena la del
|-------------------------------------0-0--4--7--5--4--2---0-20------------------------|-0---3-3----0-4-4---0--2--0--4-4---2----------------------------4----0-2-2--0-2-------|----------------------------------------------------------------------------------------

bordado mantn la de la_alegre guitarra la del clavel espaol.


|------------0---0--2---4--7--5---4-7--5--4--2----0-2--0----0----|-0--4-4--2-----------------------------------------------4------|-----------------------------------------------------------------

file:///C|/Archivos%20de%20programa/eMule/Incoming/...cionero-guitarra-bandurria_(1)/MorenaDeMiCopla.html (2 de 2)01/11/2008 10:45:09 p.m.

Morenita de mi alma

MORENITA DE MI ALMA

C
G7
Morenita de mi alma vente conmigo yo te convido
Dm
G7
C
a la choza que tengo cerca del ro junto a la playa,
C7
F
all cantan las olas dulces canciones que yo acompao
C
G7
C
con mi dulzaina india que solo dice tu dulce nombre.

Morenita

G7
de mi alma morena, morena bendita seas,
C
de mi alma morena, morena bendita seas.
C
vayas que yo te pongo
C
de luceros que yo recojo con mi atarraya,
C
escapas yo te aprisiono

morenita
F
No te me
G7
candonga
F
no te me
G7
C
con las notas salvajes de mis guabinas y mis bambucos.

file:///C|/Archivos%20de%20programa/eMule/Incoming/_cancionero-guitarra-bandurria_(1)/MorenitaDeMiAlma.html01/11/2008 10:45:09 p.m.

Muchachita sabanera

MUCHACHITA SABANERA

(J.V. Torrealba)

Em
|
Del horizonte a la palma
|
Am
B7
|
se oye un canto de cigarra,
| BIS
Am
B7
|
y el sonar de una guitarra
|
Em (La 2 E7) |
que me florece en el alma.
|

Am
Prenda querida

Em
asmate a la ventana
B7
para que cuentes maana
Em
(La 1 E7)
cmo fue mi despedida.

|
| BIS
|
|
|
|

Em
|
Las espigas van jugando
|
Am
B7
|
con el perfil de mi sombra,
| BIS
Am
B7
|
llevan por el mismo rumbo
|
Em
(La 2 E7) |
caballo y luna redonda.
|

Am
Yo no te cambio,
Em
muchachita sabanera,

|
|
|
| BIS

B7
|
ni por la luz de la Luna,
|
Em
(La 1 E7) |
ni por todas las estrellas.
|

file:///C|/Archivos%20de%20programa/eMule/Incoming/_cancionero-guitarra-bandurria_(1)/MuchachitaSabanera.html01/11/2008 10:45:10 p.m.

Muequita linda

MUEQUITA LINDA

(Mara Grever)

E
Te quiero, dijiste
C#m
G#m
C#m
G#m
C#7
F#m G#
tomando mis manos entre tus manitas de blanco marfil,
C#m F#
B
G#
y sent en mi pecho un fuerte latido,
C#m
F#
B7
despus un suspiro, y luego el chasquido de un beso febril.

E
Muequita linda,
de cabellos de oro,
C#7
F#m 62 50 51 B7
de dientes de perla,
E
labios de rub.

E
Dime si me quieres,
como yo te adoro,
C#7
F#m 62 50 51 B7
si de m te acuerdas,
E
como yo de ti.

A
Y a veces se escucha,
Bbd
E
un eco divino,
C#7
F#m
que envuelto en la brisa
B7
parece decir:

E
"Si, te quiero mucho,
file:///C|/Archivos%20de%20programa/eMule/Incoming/_cancionero-guitarra-bandurria_(1)/MunequitaLinda.html (1 de 2)01/11/2008 10:45:10 p.m.

Muequita linda

mucho, mucho, mucho,


C#7
F#m 62 50 51 B7
tanto como entonces,
E
siempre hasta morir".
A Am E
..siempre hasta moriiiiiir.

INSTRUMENTAL:
C#m, F#, B7

(Final)

E, C#m, G#m, C#m, G#m, C#7, F#m, G#, C#m, F#, B, G#,

file:///C|/Archivos%20de%20programa/eMule/Incoming/_cancionero-guitarra-bandurria_(1)/MunequitaLinda.html (2 de 2)01/11/2008 10:45:10 p.m.

Naranjitay

NARANJITAY

(Popular)

Em
B7
Em
Naranjitay, pinta y pintitay,
B7
Em
Naranjitay, pinta y pintitay.
Am
he de robarte una cinta
G
si no es esta nochecita
B7
Em
maana por la maanita.

Em
B7
Em
A los lejos, se te divisa,
B7
Em
A los lejos, se te divisa,
Am
la punta de tu enagita,
G
la boca se me hace agita
B7
Em
y el corazn me palpita.

Em
B7
Em
Tus hermanos, mis cuaditos,
B7
Em
tus hermanas, mis cuaditas,
Am
tu pap ser mi suegro
G
tu mam ser mi suegra
B7
Em
y t la prenda ms querida.
B7
Em
y t la prenda ms querida.
B7
Em / B7 / Em
y t la prenda ms querida.

CIFRADOS
Em
D7
G
Em
B7
Em
|-2-7-2-7-2-0--------------------0-7-2-2---2-7-2-7-2-0------------------02------------|-------------3-2-0---0----0-2-3----------------------3-2-0---0---0-2-3-----3-00------|-------------------4----3---------------------------------4--------------------------D7
G
D7
G
Em
B7
Em B7 Em
|-0-5-0-5-0-0-5-2-2---0-5-0-5-0-0-5-2-2---2-7-2-7-2-0------------------02-------------|-----------------------------------------------------3-2-0---0--0-2-3-----3-0-0-3--00-

file:///C|/Archivos%20de%20programa/eMule/Incoming/_cancionero-guitarra-bandurria_(1)/Naranjitay.html (1 de 3)01/11/2008 10:45:10 p.m.

Naranjitay

|----------------------------------------------------------4--------------------------G
D7
G G
D7
G C
G
B7
Em
|-------2-5-3-2-0----------2-5-3-2-0----7-7-7-7-9-7-5-5-5-5---0-2-2-3-20--------------|---3-3-----------3----3-3-----------3----------------------3-------------3-2-00------|-3-----------------3-----------------------------------------------------------------C
G
B7
Em B7 Em B7 Em
|-7-7-7-7-9-7-5-5-5-5---0-2-2-3--2-0------------------------|---------------------3--------------3-2-0--3--0--3--0-0-0--|-----------------------------------------------------------D7
G
B7
Em D7
G
B7
Em
D7
G
|-5-3-2-0-2----0-1-2-0--------5-3-2-0-2----0-2-7-0-------------------0----0-----------|------------3---------3-2-0-------------3---------3-2-0---3-2-0---2-----2---3-3-33---|----------------------------------------------------------------3----3---------------|
|
|-0-------2--------0-------2--0-------2--------0------2-------------------------------|-2-------3--------2-------0--2-------3--------2-------0---0---------2----2-----------|-3-------0--------0-------0--3-------0--------0-------0-----3-1---1-----1---0-0-00---|----------------------------------------------------------------3----3---------------B7
Em
D7
G
B7
Em B7 Em B7 Em
|-2-2-2-2-3-2-0---------------------0-----0---------2-2-2-2-3-20----------------------|---------------3-2-0-0---3-2-0---2-----2---3-3-3-3---------------3-2-0--3--0--3--0-00|-------------------------------3----3------------------------------------------------|
|
|---------0------------------------------------------------0--------------------------|-3-3-3-3---3-2-0---------0---------2-----2---------3-3-3-3---3-2-0-----0--0----------|-----------------4-0-0-----3-1---1-----1---3-3-3-3-----------------4-0---0---0-00----|-------------------------------3----3-------------------------------------------------

Naranjitay pinta_y pintitay Naranjitay pinta_y pintitay. He de robarte_esa cinta si


|------0-2---0---0---2--0----------0-2---0---0---2--0------3--3--3-3---3--3--3--3-2---|-3-3---------------------3---3-3--------------------3--------------------------------|--------------------------------------------------------------------------------------file:///C|/Archivos%20de%20programa/eMule/Incoming/_cancionero-guitarra-bandurria_(1)/Naranjitay.html (2 de 3)01/11/2008 10:45:10 p.m.

Naranjitay

|
|
|--------------------------------------------------------------------------------------|-0-0--2-3---2---2---3--2-0---0-0--2-3---2---2---3--2-0----0--0--0-0---0--0--0--0-3---|---------------------------------------------------------------------------------------

no_es esta nochecita maana por la maanita.


|--2---2--2--2--2-2-2--0-0-0--0------2-2-0----|---------------------------------3--------3--|---------------------------------------------|
|
|---------------------------------------------|--3---3--3--3--3-3-3--2-2-2--2---0--3-3-2-0--|----------------------------------------------

file:///C|/Archivos%20de%20programa/eMule/Incoming/_cancionero-guitarra-bandurria_(1)/Naranjitay.html (3 de 3)01/11/2008 10:45:10 p.m.

Noche de ronda

NOCHE DE RONDA

(Lara)

Dm
Gm
Noche de ronda,
Dm
Gm
que triste pasas,
Dm
Gm
que triste cruzas,
A# A7
por mi balcn.

Gm
Noche de ronda,
cmo me hieres,
cmo lastimas
A# A7
mi corazn.

D
Luna que se quiebra
sobre las tinieblas de mi soledad,
Ebd A7
a dnde vas.
Dime si esta noche
t te vas de ronda como ella se fue,
D
con quien est.

D
Dile que la quiero,
dile que me muero de tanto esperar,
D7
G
que vuelva ya.
Gm
Dm
Que las rondas no son buenas,
file:///C|/Archivos%20de%20programa/eMule/Incoming/_cancionero-guitarra-bandurria_(1)/NocheDeRonda.htm (1 de 2)01/11/2008 10:45:10 p.m.

Noche de ronda

A7
Dm
que hacen dao, que dan penas,
Ebd A7
D
y se acaba por llorar.

file:///C|/Archivos%20de%20programa/eMule/Incoming/_cancionero-guitarra-bandurria_(1)/NocheDeRonda.htm (2 de 2)01/11/2008 10:45:10 p.m.

La noche perfumada

LA NOCHE PERFUMADA

(E. Lecuona)

Am
E7
Am
E7
Am
E7
En la noche perfumada, callada, sola y llena de estrellas,
Dm
E7
Am
te traigo la dulce queja de mis amores, de mis tristezas.
E7 Am
E7
Am
A7
Dm
Con la suave serenata que es un lamento que llora mi alma,
Am
E7
Am A7
va todo el dolor y todo el afn que siento en mi corazn,
Dm
Am
E7
A
va todo el dolor y todo el afn que siento en mi corazn.

E7
A
Bbd
E7
Oye el cantar en la noche de luz tropical,
Bm
E7
Bm
E7
A
oye el sonar de mi canto de plata y cristal,
E7
A
A7
D
oye el cantar en la noche serena y sin luz,
A F#
Bm
E7
A
va por tu amor, que el amor de mi vida eres t.

Am
E7
Am
E7
Am
E7
Te traigo en mi estudiantina suaves cadencias de mis amores,
Dm
E7
Am
te traigo la dulce queja de mis amores, de mis tristezas.
E7
Am
E7
Am
A7
Dm
Si ahora est sola y triste pensando siempre que no la quieres,
Am
E7
Am A7
escucha el cantar, escucha el amor que siente mi corazn,
Dm
Am
E7
A
escucha el cantar, escucha el amor que siente mi corazn.

INTRODUCCIN:

Dm, Am, E7, Am, A7, Dm, Am, E7, Am

(BIS)

file:///C|/Archivos%20de%20programa/eMule/Incoming/_cancionero-guitarra-bandurria_(1)/NochePerfumada.htm01/11/2008 10:45:10 p.m.

No puede ser

NO PUEDE SER

(Sorozbal, de la Zarzuela La tabernera del puerto)

Em

B7
No puede ser, esa mujer es buena,
Em
E7
Am
no puede ser una mujer malvada,
Am
B7
Em
en su mirar, como una luz singular,
Am
C
B7
he visto que esa mujer es una desventurada.

B7
No puede ser una vulgar sirena,
E
A
que envenen las horas de mi vida.
Am
B7 Em
No puede ser, porque la vi rezar,
Am
B7
B7
E / B7 / E
porque la vi querer, porque la vi llorar.

A
E B7 E
A
E / B7 / E
Los ojos que lloraaaan no saben mentir,
A
E
C#m
F#m
las malas mujeres
no miran as.
Am
E B7 E
A
E / B7 / E
Temblando en sus oojooos dos lgrimas vi,
A
C#m B7
E
y a m me ilusiona que tiemblen por m.

B7
Viva luz de mi ilusin,

se piadosa con mi amor,


Am
Em
porque no s fingir,
B7
porque no s callar,
Em
porque no ser vivir.

file:///C|/Archivos%20de%20programa/eMule/Incoming/_cancionero-guitarra-bandurria_(1)/NoPuedeSer.htm01/11/2008 10:45:11 p.m.

Nosotros

NOSOTROS

(Pedro R. Junco)

Am Dm
Atindeme,
Am
Dm
quiero decirte algo,
Am
E7
que quizs no esperes,
Am E7
doloroso, tal vez.

Am Dm
Escchame,
Am
Dm
aunque me duela el alma,
Am
E7
yo necesito hablarte,
A / F#m / Bm / E7
y as lo har.

A
Nosotros,
E7
A
que fuimos tan sinceros,
E7
A
que desde que nos vimos
Bbd
Bm
amndonos estamos.

E7
Nosotros,
Bm
que del amor hicimos
E7
un sol maravilloso,
A / F#m / Bm / E7
romance tan divino.

A
Nosotros,
file:///C|/Archivos%20de%20programa/eMule/Incoming/_cancionero-guitarra-bandurria_(1)/Nosotros.htm (1 de 2)01/11/2008 10:45:11 p.m.

Nosotros

E7
A
que nos queremos tanto,
A7
debemos separarnos,
D
no me preguntes ms.

Dm
No es falta de cario,
A / G7 / F#7
te quiero con el alma,
Bm
te juro que te adoro
E7
y en nombre de este amor y por tu bien,
A
te digo adis.

file:///C|/Archivos%20de%20programa/eMule/Incoming/_cancionero-guitarra-bandurria_(1)/Nosotros.htm (2 de 2)01/11/2008 10:45:11 p.m.

No volver

NO VOLVER

(Cortzar / Espern)

E
B7
E
Cuando lejos te encuentres de m,
A
B7
cuando quieras que est yo contigo,
A
B7
E
no hallars un recuerdo de m,
B7
A
E
ni tendrs ms amores conmigo.

E
B7
E
Yo te juro que no volver,
E7
A
Aunque me haga pedazos la vida,
E
Si una vez con locura te am,
B7
A
E
Ya de mi alma estars despedida.

A
No volver,
E
Te lo juro por Dios que me mira,
B7
Te lo digo llorando de rabia,
A B7 A E
No volver.
A
No parar,
E
Hasta ver que mi llanto ha formado,
B7
Un arroyo de olvido anegado,
A
B7
E
Donde yo tu recuerdo ahogar.

E
B7
E
Fuimos nubes que el viento arrastr,
A
B7
file:///C|/Archivos%20de%20programa/eMule/Incoming/_cancionero-guitarra-bandurria_(1)/NoVolvere.html (1 de 2)01/11/2008 10:45:11 p.m.

No volver

Fuimos piedras que siempre chocaron,


A
B7
E
Gotas de agua que el sol resec,
B7
A
E
Borracheras que no terminamos.

E
B7
E
En el tren de la ausencia me voy,
E7
A
Mi boleto no tiene regreso,
E
Lo que tengas de m te lo doy,
B7
A
E
Pero yo te devuelvo tus besos.

file:///C|/Archivos%20de%20programa/eMule/Incoming/_cancionero-guitarra-bandurria_(1)/NoVolvere.html (2 de 2)01/11/2008 10:45:11 p.m.

Nube gris

NUBE GRIS

(Eduardo Mrquez Talledo)

D
Ebd
A7
Si me alejo de ti, es porque he comprendido,
Em
A7
D
que soy la nube gris que nubla tu camino,
D7
G
me voy para dejar que cumplas tu destino,
D
A7
D
que seas muy feliz mientras yo busco el mo.

D
Ebd
A7
Si me alejo de ti es porque yo quisiera
Em
A7
D
que fueras muy feliz aunque mi amor se muera.
D7
G
Me voy sin realizar mi sueo mas querido,
D
A7
D
me voy con el pesar de no ser comprendido.

A7
D
Y otra vez volver a ser el errante trovador,
A7
D
que va en busca del amor, del amor de una mujer.
B7
Em
A7
se perdi el celaje azul donde guardaba la ilusin,
D
A7
D
vuelve la desolacin, vivo sin ti. (2 sin luz)

file:///C|/Archivos%20de%20programa/eMule/Incoming/_cancionero-guitarra-bandurria_(1)/NubeGris.htm01/11/2008 10:45:11 p.m.

diame

DIAME

(Rafael Otero)

Am
E7
Am
diame por piedad, yo te lo pido,
A7
Dm
diame sin medida ni clemencia,
G7
C
odio quiero ms que indiferencia,
E7
Am
porque el rencor hiere menos que el olvido.

|
|
|
| BIS
|
|
|

G7
C
Si t me odias quedar yo convencido
G7
C
que me amaste, mujer, con insistencia,
E7
Am
pero ten presente, de acuerdo a la experiencia,
Dm E7
Am
que tan solo se odiar lo querido.

Am
E7
Am
Qu vale ms, yo nio, t orgullosa,
A7
Dm
o vale ms, tu dbil hermosura,
G7
C
piensa que en el fondo de la fosa,
E7
Am
llevaremos la misma vestidura.

|
|
|
| BIS
|
|
|

Si t me odias, quedar yo convencido...

file:///C|/Archivos%20de%20programa/eMule/Incoming/_cancionero-guitarra-bandurria_(1)/Odiame.htm01/11/2008 10:45:12 p.m.

Ojos de Espaa

OJOS DE ESPAA

(B. Kaempfer / Singleton / Snyder)

A
Son como el mar,
Bbd
E7
como el azul de cielo y como el sol.
Bm
E7
Son del color,
Bm
E7
A E7
del clavel que empieza a despertar.

A
Son algo ms,
que
Dm
Ol
los

Em7 A7
D
las estrellas al anochecer.
A F#
y ol,
Bm
E7
A
ojos de la espaola que yo am.

A
Yo fui feliz,
Bbd
E7
mirando aquellos ojos de mi amor.
Bm
E7
Yo nunca vi,
Bm
E7
A
ni en el arcoiris su color.

A
Son algo ms,
que
Dm
Ol
los

Em7 A7
D
las estrellas al anochecer.
A F#
y ol,
Bm
E7
A
ojos de la espaola que yo am.

Bm
E7
A
Ojos de amor que nunca olvidar.
file:///C|/Archivos%20de%20programa/eMule/Incoming/_cancionero-guitarra-bandurria_(1)/OjosDeEspana.htm (1 de 2)01/11/2008 10:45:12 p.m.

Ojos de Espaa

file:///C|/Archivos%20de%20programa/eMule/Incoming/_cancionero-guitarra-bandurria_(1)/OjosDeEspana.htm (2 de 2)01/11/2008 10:45:12 p.m.

Oropel

OROPEL

(Jorge Villamil)

Am
Em
No vuelvas a decir jams que has triunfado en la vida,
B7
Em E7
en cosas de fortuna o en cosas del amor.
Am
Em
Porque si apuestas una vez y pierdes la partida
B7
E
hoy juegas la ruleta y en sus vueltas locas ganas oropel.

B7
Si apuestas al amor cuntas traiciones,
F#m
B7
E
cuntas tristezas, cuntos desengaos.
B7
Te quedas, cuando el amor se aleja,
F#m
B7
E
como en las noches negras sin luna y sin estrellas.

B7
Amigo cuanto tienes cuanto vales,
F#m
B7
E
principio de la actual filosofa.
B7
Amigo no arriesgues la partida,
F#m
B7
E
tomemos este trago, brindemos por la vida,
A
B7
E
brindemos por la vida pues todo es oropel.

file:///C|/Archivos%20de%20programa/eMule/Incoming/_cancionero-guitarra-bandurria_(1)/Oropel.htm01/11/2008 10:45:12 p.m.

La ovejita lucera

LA OVEJITA LUCERA

D
Tengo yo una ovejita lucera,
|
A7
D (La 2 D7) | BIS
que de cascabeles le he puesto un collar.
|

G
A7
D
Yo la llamo, ella viene a mi vera,
B7
Em
A7
D (La 1 D7)
corriendo ligera con este cantar.

|
| BIS
|

D
Me gusta cmo bala la ovejita:
Beeeee! daba daba daba daba dabad.
A7
Y cmo le responde el corderito:
Baaaaa! daba daba daba daba dabad.

Dm
A7
Me suena a musiquilla celestial ese dulce balar,
me gusta que en las ferias del lugar
los cohetes al subir hagan psssssssssss, PUM!
Dm
A7
D
Hagan pum, hagan pam, los dems a mi plin, a mi plin los dems.

D
Mi ovejita se ha roto un pata,
|
A7
D (La 2 D7) | BIS
qu lata, qu lata, que no puede andar.
|

G
A7
D
Yo la llamo, ella viene a mi vera,
B7
Em
A7
D (La 1 D7)
mi oveja lucera que pena me da.

|
| BIS
|

file:///C|/Archivos%20de%20programa/eMule/Incoming/_cancionero-guitarra-bandurria_(1)/OvejaLucera.htm (1 de 2)01/11/2008 10:45:12 p.m.

La ovejita lucera

Me gusta cmo bala la ovejita ...

file:///C|/Archivos%20de%20programa/eMule/Incoming/_cancionero-guitarra-bandurria_(1)/OvejaLucera.htm (2 de 2)01/11/2008 10:45:12 p.m.

El pjaro chog

EL PAJARO CHOG

E
C#m
Cuenta la leyenda que en un rbol
A
Ebm
B7
se encontraba encaramado un indiecito guaran,
F#m
que sobresaltado por el grito de su madre
B7
E / A / E / A
perdi apoyo, y cayendo se muri.
E
C#m
Y que entre los brazos maternales
E
E7
A
por extrao sortilegio en chog se convirti.

A
Chog, chog, chog, chog,
G#m
cantando est, mirando all,
F#m
B7
Bm E7
mirando ac, volando se alej.
Am
D7
Chog, chog, chog, chog,
E
C#7
que lindo es, que lindo va
F#m
B7
E
perdindose en cielo guaran.

E
C#m
Y desde aquel da se recuerda al indiecito
A
Ebm
B7
cuando se oye como un eco a lo chog,
F#m
ese canto alegre y bullanguero
B7
E / A / E / A
del precioso naranjero que repica sin cesar.
E
C#m
Canta y picotea las naranjas
E
E7
A
que es su fruta preferida, repitiendo sin cesar,

file:///C|/Archivos%20de%20programa/eMule/Incoming/_cancionero-guitarra-bandurria_(1)/PajaroChogui.htm (1 de 2)01/11/2008 10:45:13 p.m.

El pjaro chog

Chog, ...

file:///C|/Archivos%20de%20programa/eMule/Incoming/_cancionero-guitarra-bandurria_(1)/PajaroChogui.htm (2 de 2)01/11/2008 10:45:13 p.m.

Pa'l comisario

P'AL COMISARIO

E
B7
Cada vez que me curo
E
me llevan preso.
E
B7
Argentinas son las vias,
A
B7 E
ser por eso? (Bis)

E
B7
En la comisara
E
pago la multa,
E
B7
ser porque el comisario
A
B7 E
tal vez no chupa?

|
| BIS
|
|
| BIS
|

|
| BIS
|

E
A
Tomemos un trago de vino
B7
E
que en seguida viene otro litro,
B7
de ese que toman los curas,
A
B7
E
comisario y gobernador.
B7
Si ellos no pagan multas
A
B7
E
tampoco las pago yo.

E
B7
Los que cultivan vino
E
son productores,
E
B7
y los que lo chupamos
A B7 E

|
| BIS
|
|
| BIS

file:///C|/Archivos%20de%20programa/eMule/Incoming/_cancionero-guitarra-bandurria_(1)/PalComisario.htm (1 de 2)01/11/2008 10:45:13 p.m.

Pa'l comisario

admiradores!

E
B7
Cuando sea comisario
E
har que multen,
E
B7
a los que le echen agua
A
B E
y no al que chupe.

|
| BIS
|

file:///C|/Archivos%20de%20programa/eMule/Incoming/_cancionero-guitarra-bandurria_(1)/PalComisario.htm (2 de 2)01/11/2008 10:45:13 p.m.

Las palmeras

LAS PALMERAS

(G. Rojas)

Em
C
B7
Ay! mi corazn est empezando a padecer,
Em
desde que yo te conoc mi dulce bien.
Em
C
B7
Se que para mi es muy difcil olvidar
Em
todo el encanto de tu mirar.

D7
G
Ven, mi amor, que quiero ser tu adoracin,
B7
Em
Y formar nuestro nidito de pasin.
D7
G
Ven, que las palmeras saben de mi amor,
B7
Em
ven que mi alma ya no puede de dolor.

B7
Em
Dame tus besos con frenes,
B7
Em
tesoro mo, dime que s.
B7
Em
Con las palmeras quiero vivir,
B7
Em
con las palmeras quiero morir.

file:///C|/Archivos%20de%20programa/eMule/Incoming/_cancionero-guitarra-bandurria_(1)/Palmeras.htm01/11/2008 10:45:13 p.m.

El parque

EL PARQUE

(Lus Abanto Morales)

A
Bbd
Paseando por el parque yo me vi
Bm
con una muchachita muy gentil,
E7
del bracito los dos al caminar
A
entonces yo mi amor le declar,
F#
Bm
pero ella dijo que no, que no, que no saba querer,
A
E7
A / E7 / A
quireme un poquito reina de mi vida, flor de mi querer.

Pero mira qu bonito que es


E7
bailar el vals as,
juntitos los dos,
A
moviendo los pies,
juntando los tacos
E7
que ya estn gastados
A
que ya viene el chaco gritando salud,
A7
D
E7
A / E7 / A
brindemos con chicha por esa cholita que vale un Per.

A
Bbd
Cantando una cancin le susurr
Bm
que en mi corazn tengo un frenes,
E7
que en mi capa la quiero cobijar
A
bailando un vals que nunca tenga fin.
F#
Bm
Pero ella repeta que no, que no, que no saba querer,
A
E7
A / E7 / A
quireme un poquito reina de mi vida, flor de mi querer.

CIFRADOS
Paseando por el parque yo me vi con una muchachita muy gentil del bracito los dos al
|-----------------4---4--4--4--4----------------5-5--5---5--5-------------------5-5----|-0-2---4--2--0-------------------0--2-4--2--0------------------0----2-4-2-0-----------|---------------------------------------------------------------------------------------|
file:///C|/Archivos%20de%20programa/eMule/Incoming/_cancionero-guitarra-bandurria_(1)/Parque.htm (1 de 3)01/11/2008 10:45:14 p.m.

El parque

|
|---------------------------------------------------------------------------------------|-------0---------0---0--0--0--0-------0--------0-0--0---0--0----------0--------0-0----|-2--4-----4--2-------------------2--4----4--2------------------0----4---4-2------------

caminar entonces yo mi_amor le declar. Pero_ella dijo que no que no que no que no
|-5-5-5-------------------4---4--4--4-4-----------------------------0---0--4---4-7-----|--------0--2--4---2---0------------------0--0---2--4-2---0--2--2----------------------|---------------------------------------------------------------------------------------|
|
No
No
|---------------------------------------------------------------------------------------|-0-0-0--------0----------0---0--0--0-0----------------------2------------0------------|--------2--4------4--2-----------------------------------------------------------------

sab_a querer, quireme_un poquito reina de mi vida flor de mi querer.


|-7-7-5---4-5-----2--4--5----2--4-2--0--4--2--0--2-0-------2--0-----0-----0--|-----------------------------------------------------4----------4--0---0----|----------------------------------------------------------------------------|
| No
|----------------------------------------------------------------------------|--------------------0--2-------0-------0---------------------------------0--|---4-------------4----------4----4--2-----4--2--4-2---0---4--2---0-2---0-----

Pero mira que bonito que_es bailar el vals as, juntitos los dos, moviendo los pies
|-4-0--2-----0--------------------------------------------------------0---0--0--0------|--------4------2-4-0----2----0--2--0---4---4-4---0--4-4---4---4---0-------------------|---------------------------------------------------------------------------------------|
|
|0-------------------------------------------------------------------------------------|---2--4-0---2----0---------------------0---0-0------0-0---0---0------0---0--0--0------|---------------4---2----4----0--4--0-------------0----------------2--------------------

juntando los tacos que ya_estn gastados que ya viene_el chaco gritando salud,
brindemos
|----0--0--0---0-0--------------------------------------------------0--0--4-7-----0--42|-0-------------------0---4---4---4--4-4----0--4--4---4-----4-4---0-------5-

file:///C|/Archivos%20de%20programa/eMule/Incoming/_cancionero-guitarra-bandurria_(1)/Parque.htm (2 de 3)01/11/2008 10:45:14 p.m.

El parque

5-----------|---------------------------------------------------------------------------------------|
|
|---------------------------------------------------------------------------------------|----0--0--0---0-0--------0---0---0--0-0-------0--0---0-----0-0-----0--0--0-------2-0--|-2-------------------0---------------------0---------------------2---------2---------4-

con chicha por esta cholita que vale_un Per.


|-0----------------------------------4----2-0---|------2--2--2--2--2---2-4-4---4--0-------------|-----------------------------------------------|
|
|-----------------------------------------------|------------------------0-0---0--0--0------0---|-2----4--4--4--4--4---4------------------4-2----

file:///C|/Archivos%20de%20programa/eMule/Incoming/_cancionero-guitarra-bandurria_(1)/Parque.htm (3 de 3)01/11/2008 10:45:14 p.m.

El parrandero

EL PARRANDERO

A
Cuanto me gusta el vino
y toda la parranda,
Bbd
E7
que todo se me va en ver que hacer
Bm
E7
A
para enamorar a esa prfida mujer. (BIS)

A
E7
Bello es amar a una mujer,
Bm E7
A
pero es mejor a dos o tres, ( a una mujer que sepa amar, pero es mejor a
ciento tres)
F#
Bm
porque el amor, el amor es traicionero,
A
E7
A
yo soy un parrandero, porque lo voy negar.

A Bbd
E7
Si esto es as,
que le voy a hacer,
Bm E7
A
si en el amor, todo es perder,
F#
Bm
porque el amor, el amor es traicionero,
A
E7
A
yo soy un parrandero porque lo voy a negar.

CIFRADOS
Cuanto me gusta_el vino y toda la parranda que todo se me va en ver
que_hacer
|-----------------------------------------------------------------------0--------------|--0---0--0--2---2----0-0-0--2-2--2--2--0--0---0--2-2--2--2--0-0---2-----2--4----------|--2---2--2--3---3----2-2-2--3-3--3--3--2--2---2--3-3--3--3--2-2---3--------5-----------

para_enamorar a_esa prfida mujer.


para_enamorar a_esa prfida mujer.
|--2--2--------------------------0-----------------------------------------|--------4-4-0---0--0--2--0-2--4------- --4--4--0-0-----------0---file:///C|/Archivos%20de%20programa/eMule/Incoming/_cancionero-guitarra-bandurria_(1)/Parrandero.htm (1 de 2)01/11/2008 10:45:14 p.m.

El parrandero

0---------|-------------------------------------2-----

------------3---3--3-----3----3-

Que bello_es amar a_una mujer, pero_es mejor a dos o tres, porque_el amor,
el amor
|---4--4---4---2-0---2--2--0------5--5----4-2--4--4--2---0----4----4---21--------------|---0--0---0-----------------4----2--2----0----0--0-----------0----0--------2--2-2-----|--------------3-2---3--3--2-0--------------3--------3---2-------------32--------------|---------------------------------------------------------------------------3--3-3------

es traicionero, yo soy un parrandero, porque lo voy a negar.


|---------1--4-2---2--5--5---4--2--4-0---4---2--4--2--0----0---|-2----4-----0--------2--2---0-----0-----0------0--------4-----|------0--2----3---3------------3----2-------3-----3--2--0-2---|-3-------------------------------------------------------------

file:///C|/Archivos%20de%20programa/eMule/Incoming/_cancionero-guitarra-bandurria_(1)/Parrandero.htm (2 de 2)01/11/2008 10:45:14 p.m.

Pasacalles de Garita

PASACALLES DE GARITA

Am
E7
Am A7 Dm
G7
C Am
Sevilla de madrugaada duerme baada de luuna,
E7
Am
B7
E7
cuando alegre por sus calles cantando pasa la tuna.
Am
A#
G7
C
Bajo un balcn se detiene y se detiene hasta el viento,
A7
Dm
B7
E7
para escuchar las canciones que dicen con dulce acento.

A
E7
A
Bbd
Bm
Mujer llena de ilusin que surges de entre las flores
E7
Bm
E7
A
D / E7
que cuelgan de tu balcn a escuchar nuestras canciones.
A
D
E
A
Ay! mujer de ojos oscuros llenos de amor y alegra,
Bm
E7
A
A7
D
hoy por ti canta la tuna, hoy por ti canta la tuna,
Dm
E7
A / E7 / A
la tuna de Ingeniera.

Am
E7
Am A7 Dm
G7
C Am
El balcn se qued soolo pero la cancin qued
E7
Am
B7
E7
subi hacindose brillante y en el cielo se prendi.
Am
A#
G7
C
Convertida en un lucero todas la noches saldr
A7
Dm
B7
E7
y al despuntar cada aurora a tu odo te cantar.

A
E7
A
Bbd
Bm
Mujer llena de ilusin que surges de entre las flores
E7
Bm
E7
A
D / E7
que cuelgan de tu balcn a escuchar nuestras canciones.
A
D
E
A
Ay! mujer de ojos oscuros llenos de amor y alegra,
Bm
E7
A
A7
D
hoy por ti canta la tuna, hoy por ti canta la tuna,
Dm
E7
A
A7
D
E7
A
E7 A
la tuna de Ingeniera, ay, ay, ay, la tuna de Ingeniera. Ol!

file:///C|/Archivos%20de%20programa/eMule/Incoming/_cancionero-guitarra-bandurria_(1)/PasacallesDeGarita.htm01/11/2008 10:45:14 p.m.

Pa todo el ao

PA

TODO

EL

AO

(Jos Alfredo Jimnez)

C
Por tu amor, que tanto anso y tanto extrao,
G7
que me sirvan una copa y muchas ms.
Que me sirvan de una vez, pa todo el ao,
C 63 63 50 50 52 52 53 G7 C (
63 50 52 53)
que me pienso, seriamente, emborrachar.

C
Si te cuentan que me vieron muy borracho,
C7
F
orgullosamente diles que es por ti,
C
porque yo tendr el valor de no negarlo,
G7
gritar que por tu amor me estoy matando,
C 63 63 50 50 52 52 53 G7 C (
63 50 52 53)
y sabrn que por tus besos me perd.

G7
Para de hoy en adelante
C
el amor no me interesa,
G7
gritar por todo el mundo
C
mi dolor y mi tristeza.

G7
Porque s que de este golpe
C
yo no voy a levantarme,
G7
y aunque yo no lo quisiera,
C 63 63 50 50 52 52 53 G7 C ( 63 50 52 53)
voy a morirme de amor.
file:///C|/Archivos%20de%20programa/eMule/Incoming/_cancionero-guitarra-bandurria_(1)/PaTodoElAno.htm01/11/2008 10:45:14 p.m.

El payador

EL PAYADOR

(Domenech / Blanco)

Am
E7
Am
Luciendo un chambergo el cantor
cruza la llanura la gentil figura
E7
de la tradicin, el payador.
Prendido en su chirip
Dm
E7
lleva rosetones de los corazones
Am
de las que rindi con su cantar.

Am
E7
Am A7
Si alguna le mira al pasar,
la guitarra llora y a la que enamora
Dm
pronto ve rendido su seor.
Am
Y hasta hacerla suspirar con acento arrullador,
E7
A
dulce la cancin entona, el payador.

E7 A
Clavel de amor,
Bbd
E7
florecita de mayo, soy tu payador,
Bm F# Bm
E7
A
jams podr vivir sin tus halagos de amor morir.
E7 A
Te har feliz,
A7
D
mi alma ya no llora al decirte que s,
Dm (D)
A F#7
sumido en el dolor
Bm
E7
A A7
quisiera ser tu dueo, soy tu payador.

|
| BIS
|

file:///C|/Archivos%20de%20programa/eMule/Incoming/_cancionero-guitarra-bandurria_(1)/Payador.htm (1 de 2)01/11/2008 10:45:14 p.m.

El payador

Am
E7
Am
Despus que ha logrado el amor
de su prenda amada, la flor deshojada
E7
con un triste adis se va el cantor.
Errante en su pinto trotn
Dm
E7
cruza la llanura la gentil figura
Am
de la tradicin, el payador.

Am
E7
Am A7
Si alguna le niega su amor
otra chica linda de boca de guinda
Dm
con su cubresol le ha de mirar
Am
y hasta hacerla suspirar, con acento arrullador
E7
A
dulce la cancin entona, el payador.

file:///C|/Archivos%20de%20programa/eMule/Incoming/_cancionero-guitarra-bandurria_(1)/Payador.htm (2 de 2)01/11/2008 10:45:14 p.m.

Perdn

PERDN

(Pedro Flores)

Dm A7
Dm
Perdn, vida de mi vida.
D7
Gm
Perdn, si es que te he faltado.
A7
Dm
Perdn, cariito amado,
E7
A7
Dm
ngel adorado dame tu perdn.

A7
Dm
Si tu sabes que te quiero
(con todo el corazn, con todo el
corazn),
A7
Dm
eres el anhelo de mi nica esperanza (de mi nica ilusin, de mi
nica ilusin),
D7
Gm
de la dicha que se alcanza
(con un poco de amor),
Dm
es todo lo que ansa
(cuando ama),
A7
es todo lo que ansa
(cuando ama),
Dm
mi pobre corazn.

Dm A7
Dm
Jams habr quien separe,
D7
Gm
amor, de tu amor el mo,
A7
Dm
porque todo lo que anso,
E7 A7
Dm
es que el amor mo tenga tu perdn.

Si tu sabes que te quiero. . .

Gm

Dm

file:///C|/Archivos%20de%20programa/eMule/Incoming/_cancionero-guitarra-bandurria_(1)/Perdon.htm (1 de 2)01/11/2008 10:45:15 p.m.

Perdn

Es todo lo que ansa (cuando ama),


E7
es todo lo que ansa (cuando ama),
A7
Dm / Gm / Dm
mi pobre corazn.

INTRODUCCIN:

Dm, A7, Dm, A7, Dm

file:///C|/Archivos%20de%20programa/eMule/Incoming/_cancionero-guitarra-bandurria_(1)/Perdon.htm (2 de 2)01/11/2008 10:45:15 p.m.

Perfidia

PERFIDIA

(Alfonso Esparza)

C / Am / Dm
Mujer,
G7
C
Am / Dm
si puedes t con Dios hablar,
G7
C
Am
pregntale si yo alguna vez
Dm
E7 G7
te he dejado de adorar.

C / Am / Dm
Y el mar,
G7
C Am / Dm
espejo de mi corazn,
G7
C
Am
las veces que me ha visto llorar
Dm
E7
la perfidia de t amor.

Dm
F7
Te he buscado donde quiera que yo voy,
E7
y no te puedo hallar.
Dm
Para que quiero otros besos
G
F
E7 / G7
si tus labios no me quieren ya besar.

C / Am / Dm
Y t,
G7
C
Am / Dm
quien sabe por donde andars,
G7
C
Am
quien sabe que aventuras tendrs,
Dm
G7
C
qu lejos ests de m.

file:///C|/Archivos%20de%20programa/eMule/Incoming/_cancionero-guitarra-bandurria_(1)/Perfidia.htm01/11/2008 10:45:15 p.m.

Pescadores

PESCADORES

(Canizo)

Bm
F#7
Aun no ha salido el sol,
Bm
el suelo brilla,
Em / F#7
con un suave orballar,
Bm
Cimadevilla.

Em
Bm
Pisadas recias en la madrugada,
F#7
Em
F#7
Bm
la barca espera, lleg la hora de ir a la mar.

Bm
Em
F#7
Bm
Pescadores, de la costa verde y bella,
Bm
Em
F#7
Bm
pescadores, a la mar que est serena,
Em
Bm
pescadores, aunque todo el mundo duerma,
F#7
Bm
en la mar est tu vida, all tienes tu faena.

F#7
Ya vienen de la mar
Bm
los pescadores,
Em / F#7
cansados de faenar
Bm
con mil sudores.

Em
Bm
Vienen alegres con un cantar,
F#7
Em
F#7
Bm
traen mucha pesca, en tierra espera el dulce hogar.

file:///C|/Archivos%20de%20programa/eMule/Incoming/_cancionero-guitarra-bandurria_(1)/Pescadores.htm (1 de 2)01/11/2008 10:45:15 p.m.

Pescadores

Pescadores, de la costa verde y bella ...

Em
F#7
Pescadores, pescadores,
Bm
a la mar.

file:///C|/Archivos%20de%20programa/eMule/Incoming/_cancionero-guitarra-bandurria_(1)/Pescadores.htm (2 de 2)01/11/2008 10:45:15 p.m.

Piel Canela

PIEL CANELA

(Bobby Cap)

Am
D7
G
Em
Que se quede el infinito sin estrellas,
Am
D7
G
o que pierda el ancho mar su inmensidad,
B7
Em
pero el negro de tus ojos que no muera,
Am
D7
piel canela que tu piel se quede igual.

Am
D7
G
Em
Si perdiera el arcoiris su belleza,
Am
D7
G
y las flores su perfume y su color,
B7
Em
no sera tan inmensa mi tristeza,
Am
D7
como aquella de quedarme sin tu amor.

Am
D7
Am
Me importas t, y t, y t, y
Em
Am
D7
Am
Me importas t, y t, y t, y
E7
Ojos negros, piel canela, que
Am
D7
Am
Me importas t, y t, y t, y
Em
Am
D7
Am
Me importas t, y tu, y t, y

D7
solamente
D7
nadie ms
Am
me llegan
D7
solamente
D7
nadie ms

G
Em
G
t y t y t,
G
que t.
D7
a desesperar.
G
Em
G
t y t y t,
G
que t.

file:///C|/Archivos%20de%20programa/eMule/Incoming/_cancionero-guitarra-bandurria_(1)/PielCanela.htm01/11/2008 10:45:15 p.m.

El pobre hombre

EL POBRE HOMBRE

Dm
Era un pobre hombre,
A7
Dm
era tuerto y era jorobado,
D7
Gm
no tena dinero ni riqueza alguna,
A7
Dm
y la tuberculosis en l se haba cebado.

Dm
Su padre era un perdido,
A7
Dm
su abuelo un disoluto,
D7
su mujer lo engaaba
Gm
con su amigo ms fiel.

De tres hijos que tuvo,


Dm
la lepra a dos mat,
A7
y al pibe ms pequeo
Dm
lo atropell un camin.

Dm
Un da fue a la iglesia,
A7
Dm
a dar gracias a Dios,
D7
una cornisa haba,
Gm
sobre l se desplom.

Estando en la agona,
file:///C|/Archivos%20de%20programa/eMule/Incoming/_cancionero-guitarra-bandurria_(1)/PobreHombre.htm (1 de 2)01/11/2008 10:45:16 p.m.

El pobre hombre

Dm
una blasfemia ech: Carajo!
A7
Fue su nico pecado,
Dm
por l se conden.

Dm
Y estando en el infierno,
D7
Gm
se le oa decir:
Dm
A7
Esto es vida, joder,
Dm
33, 32, 30, 43, 42, 40 A7
esto es vivir!

Dm

file:///C|/Archivos%20de%20programa/eMule/Incoming/_cancionero-guitarra-bandurria_(1)/PobreHombre.htm (2 de 2)01/11/2008 10:45:16 p.m.

El pobre Miguel

EL POBRE MIGUEL

A
E7
Cuando voy caminando por la plaza
Bm
E7
A
me preguntan si he visto a Miguel Canales.
F#7
Bm
El dice que es feliz en la montaa,
E7
A
que hace mucho tiempo que no sale.

|
| BIS
|
|
| BIS
|

Bm
Ay! Qu le estar pasando al probe Miguel
E7
A
que hace mucho tiempo que no sale.
F#7
Bm
Qu le estar pasando al probe Miguel
E7
A
que hace mucho tiempo que no sale.
A
E7 Bm
E7
A
La Lara Lai La, La Lara Lai La. (BIS)

A
E7
Me dicen, me dicen que Miguelito,
Bm
E7
A
entre nosotros se encuentra muy extrao.
F#7
Bm
El dice que es feliz en la montaa,
E7
A
que se est convirtiendo en ermitao.

|
| BIS
|
|
| BIS
|

Ay! Qu le estar pasando al probe Miguel . . .

A
E7
Me dicen, me dicen que Miguelito,
Bm
E7
A
en la montaa se encuentra muy feliz.
F#7
Bm
El dice que es feliz en la montaa,

|
| BIS
|
|

file:///C|/Archivos%20de%20programa/eMule/Incoming/_cancionero-guitarra-bandurria_(1)/PobreMiguel.html (1 de 2)01/11/2008 10:45:16 p.m.

El pobre Miguel

E7
A
que de all ya no quiere ms salir.

| BIS
|

Ay! Qu le estar pasando al probe Miguel . . .

A
E7
Me dicen me dicen que Miguelito,
Bm
E7
A
de la montaa no quiere ms salir.
F#7
Bm
El dice que se hace su cafelito,
E7
A
y all se toma l hasta su vinito.

|
| BIS
|
|
| BIS
|

Ay! Qu le estar pasando al probe Miguel . . .

file:///C|/Archivos%20de%20programa/eMule/Incoming/_cancionero-guitarra-bandurria_(1)/PobreMiguel.html (2 de 2)01/11/2008 10:45:16 p.m.

Popurr asturiano

POPURR ASTURIANO

D
Se oye sonar una gaita,
G
A7
D
se oye sonar un tambor.
D
Baxen les moces del pueblu,
G
A7
D
ya a la fiesta del patrn.

D7
G
La alegra de les moces,
A7
D
el olor de la manzana,
B7
Em
bellos campos bellas flores,
A7
D
es una aldea asturiana.

D7
G
Caminito de la fuente,
A7
D
va llorando una morena,
B7
Em
porque no tiene vestido,
A7
D
para lucirlo en la fiesta.

D
En vista del barullu que ah haba,
G
A7
D
vinieron tres doctores de Madrid.
D
En vista del barullu que ah haba,
G
A7
D D7
vinieron tres doctores de Madrid.
G
D B7
a traer un ungento pegaosu
Em
A7
D D7
pa toes les criades de servir,
G
D B7
a traer un ungento pegaosu
Em
A7
D
pa toes les criades de servir.

D
G
Faz tres aos que march
A7
D
Ramonzn de la Panera,
lai larai la lara la.

|
|
|
| BIS
|
|

file:///C|/Archivos%20de%20programa/eMule/Incoming/_cancionero-guitarra-bandurria_(1)/PopurrAsturiano.htm (1 de 6)01/11/2008 10:45:17 p.m.

Popurr asturiano

G
A7
Y escribioyos a sus padres,
D
diciendo de esta manera,
D
A7 D
lai la lai la, lai larai.....

D
G
Cuando lleg Ramonzn
A7
D
en vez de traer dineru,
lai larai la lara la.

A7

A7

|
|
|
| BIS
|
|

G
A7
Lo que trajo fue un sarnazu
D
que apest el conceyu enteru.
D
A7 D
lai la lai la, lai larai.....

D
G
A7
D
Villaviciosa, hermosa, que llevas dentro,
G
A7
D
t me robaste el alma y el pensamiento.
A7
D
G
D
A7
D
Y esos claveles que en tu jardn los tienes sembrados,
G
D
A7
D
verdes, azules y colorados.

D
A7
D
Baila el Xiringelu, Xiringelu, Xiringelu
A7
D
baila el Xiringelu, Xiringelu y nada ms.
G
D
A7
D
Ay, Coln, Ay, Cols,
G
D
A7
D
baila el Xiringelu, Xiringelu y nada ms.

|
|
| BIS
|

CIFRADOS
Se_oye sonar una gaita, se_oye sonar un tambor* Baxen les moces del pueblu, ye la
|---0---------------0--0----2--0-------------------0-------------------0---0---2-0-----|------3--2-0--2-3----------------3-2--0---3--2------3---2---0-2--3--------------------|---------------------------------------------------------------------------------------|
|
|---------------------------------------------------------------------------------------|---2--0---------0--2--2----3--2--0--------0-------2-0-------------0---2---2---3-2-----|---------3-2--3--------------------3--2------3----------3---2file:///C|/Archivos%20de%20programa/eMule/Incoming/_cancionero-guitarra-bandurria_(1)/PopurrAsturiano.htm (2 de 6)01/11/2008 10:45:17 p.m.

Popurr asturiano

3-------------------------

* Se_oye sonar un tambor


|---5--4--2-0------2--0---|--------------3----------|--------------------------

fiesta del patrn. La_alegr_a de les moces, el olor de la manzana, bellos campos
|-------------------------0--2-0-----0---2-2---4--5-4---2--0-----0-0---2--4---2-0------|--3---2--0---3--2-----3----------3--------------------------3-------------------------|---------------------------------------------------------------------------------------|
|
|----------------------------------------------0--2-0--------------------0-------------|--0----------0--------0--2--3-2--0--2---3-3------------3--2--0-2-2---3------3-2------|------3--2-----3-----------------------------------------------------------------------

bellas flores, es una_alde_a_asturiana. Caminito de la fuente va llorando_una morena


|----------------0--2--4---2--0--------------0-2-0-----0--2---2--4---5-4---2--0----00--|--3--2----3-3--------------------3-2--2---3--------3---------------------------3------|---------------------------------------------------------------------------------------|
|
|----------------------0-----------------------------------------0---20----------------|--0-------0-0---2--3------3--2---0--------0-2-3-2--0--2--3---3------------3--2--0-22--|-----4-----------------------------3-3-------------------------------------------------

porque non tiene vestidu para lucilo_en la fiesta.


|--2---4--2---0-------------0-2--4-2--0---------------|----------------3--2--3-3-----------------3--2---2---|-----------------------------------------------------|
|
|------0-------------------------0-------------------|--3------3---2--0-----0-0--2-3----3--2----0---------|-------------------4-------------------------3---3---

En vista del barullu que_ah hab___a vinieron tres doctores de Madrid.


(bis)
|---------------------------------0------0------------------0---0--------5-5-5-2-0-20---

file:///C|/Archivos%20de%20programa/eMule/Incoming/_cancionero-guitarra-bandurria_(1)/PopurrAsturiano.htm (3 de 6)01/11/2008 10:45:17 p.m.

Popurr asturiano

|-----2--2--2---2-2--0----2-----3---3-2----3--3----3---3--3--------3-2-----------------|3-------------------------------------------------------------------------------------|
|
|--------------------------------------------------------------------------|-------------------------------0-2-0----2-0--0----0---0--0-2---2--0-------|-----3--3--3---3-3--2----3-----------3-------------------------------3-----

A tra_er un ungentu pegao__su, pa to_es les cri_ades de servir. (bis)


|-----0-2--2--2--2---0----2-0-5-0---0-----------------0---0---------|-3---------------------3--------------3-3---3----3-3--------3--2---|-------------------------------------------------------------------|
|
|-----------------------------0-------------------------------------|-0---2-3--3--3--3---2--0-3-2---2---2--0-0---0----0-0-2---2--0------|---------------------------------------------------------------3----

Faz tres aos que march Ramonzn de la panera, trai la ra lai la ra la. (bis)
|--5----5--5-2----2--2---2--4-4--4---0--0--0-0-0----0---2--0------------0------0--|-------------------------------------------------------------3---2--3-----2-3----|---------------------------------------------------------------------------------|
|
|---------------------------0-0--0-------------------------------------------------|-----------------0--2---3-----------2--2--2-2-2----2---3--2--0------0--2-----0-2--|--3----3--3-3----------------------------------------------------3---------3-------

Y_escribioyos a sus padres diciendo de_esta manera. Lai la lai la la lara lai la la la
|--2----2-2-------------------0-2---4---2---0----------0------0------0--0-0--2--0------|------------3--3--3---3--3--------------------3-2-2-------2------2-----------------3-0|---------------------------------------------------------------------------------------|
|
|----------------------------------0---------------------------------------------------|--3----3-3--0--0--0---0--0---2-3-------3---2--0-------2------2------2--2-2--3---2-0---|------------------------------------------------3-3-------3------3-------------------2-

Lai la lai la la lara lai la lai la. Lai la lai la la lara la lai lai la lai la lai la
|--2------2------2--2-2--4---2--0-------0------0------0--0-0--2--0---4---4--2---2--0--0|------3------3---------------------2-------2-----2------------------------------------|----------------------------------------------------------------------------------------

file:///C|/Archivos%20de%20programa/eMule/Incoming/_cancionero-guitarra-bandurria_(1)/PopurrAsturiano.htm (4 de 6)01/11/2008 10:45:17 p.m.

Popurr asturiano

|
|
|------------------------0-------------------------------------------0--0--------------|--3---0--3---0--3--3-3------3--2-------2------2------2--2-2--3--2----------3---3--2--2|-----------------------------------3-------3-----3-------------------------------------

Lai lai la.


|-------------|--3---3---2--|-------------|
|
|-------------|--0---0------|----------3---

Cuando lleg Ramonzn en vez de tra_er dineru, trai la ra lai la ra la. (bis)
|--5---5---5-2--2-2--2--4---4---4---0-0---0-0-0----0---2--0------------0-------0--|------------------------------------------------------------3---2--3------2-3----|---------------------------------------------------------------------------------|
|
|-----------------------0---0---0-------------------------------------------------|---------------0-2--3--------------2-2---2-2-2----2---3--2--0------0--2-----0-2--|--3---3---3-3---------------------------------------------------3---------3-------

Lo que trajo fue_un sarnazu que_apest_el conceyu_enteru. Lai la ...


|--2---2---2---------------------0--2---4----2--0------------0-------|-----------------3----3--3-3----------------------3---2-2-------2---|--------------------------------------------------------------------|
|
|---------------------------------------0----------------------------|--3---3---3-0----0----0--0-0----2--3--------3--2--0---------2-------|--------------------------------------------------3---3---------3----

Villaviciosa_hermosa que llevas dentro, t me robaste_el alma y_el pensamiento, y_esos


|--0--2-4-5---5----7-4---5---2-2---4---0---0--2--4-5---5---7--4--5----2--2-4---0--2----|------------------------------------------------------------------------------------3-|---------------------------------------------------------------------------------------|
|
|-------0-2---2----4-0---2---------0-------------0-2---2---4--0--2--------0------------|--2--3----------------------3-3-------2---2--3----------------------3--3------2---3-0--

file:///C|/Archivos%20de%20programa/eMule/Incoming/_cancionero-guitarra-bandurria_(1)/PopurrAsturiano.htm (5 de 6)01/11/2008 10:45:17 p.m.

Popurr asturiano

|----------------------------------------------------------------------------------------

claveles, que_en tu jardn los tienes sembrados,


verdes, azules y colorados.
|-----0--------2----2--2--0---0---0--4---4---4-5-------0--2--2---2-0-0--0--0-2-4-5----|---3---2----------------------------3---3---3-2---2-3--------------------------------|-------------------------------------------------------------------------------------|
|
|------------------------------------------------------------------------------0------|---0-2--------3----3--3--2---2---2--0---0---0-------0-2--3--3---3-2-2--2--2-3---2----|-------3--------------------------------------3---3-----------------------------3-----

Baila_el xiringelu, xiringelu, xiringelu, baila_el xiringelu, xiringelu_y nada


ms
|-----------0-2--2--0-----0--0--------2--2--0------------0-2--2--0-----0-0-------------|--2---3----------------2-------3---0-----------2---3----------------2--------3---0-3-2|---------------------------------------------------------------------------------------|
|
|---------------------------------------------------------------------------------------|------0----2-3--3--2-----2--2--0-----3--3--2-------0----2-3--3--2-----2--2---0----0---|--3--------------------3-----------2-----------3--------------------3------------2---3-

Ay Coln, Ay Cols,
baila_el xiringelu, xiringelu_y nada ms.
|------0--2---2-0----------------0---2---2----2-2--0--0---0-0--2---0---2-4--5-----0-5--|--2-3--------------3---3-2--2-3-------------------------------------------------------|--------------------------------------------------------------------------------------|
|
|--------------------------------------------------------------------------------------|----0-2--3---3-2---0---0------0-2---3---3----3-3--2--2---2-2--3---2---3-0--2-------2--|--3----------------------3--3----------------------------------------------3-----0-----

file:///C|/Archivos%20de%20programa/eMule/Incoming/_cancionero-guitarra-bandurria_(1)/PopurrAsturiano.htm (6 de 6)01/11/2008 10:45:17 p.m.

Popurr Canario

POPURR CANARIO

D
Esta noche no alumbra,
G
A7
la farola del mar.
Esta noche no alumbra
Em
A7
D
porque no tiene gas.
Porque no tiene gas,
G
A7
porque no tiene gas,
esta noche no alumbra
Em
A7
D
la farola del mar.

D
G A7 (Gm / A7 / Gm / A7)
Palmero sube a la palma,
D
y dile a la palmerita,
D
G A7 (Gm / A7 / Gm / A7)
que se asome a la ventana
D
que su amor la solicita,
G A7 (Gm / A7 / Gm / A7)
que su amor la soliciita,
D
palmero sube a la palma.

D
Virgen de Candelaria,
G A7
la ms bonita, la ms moreena.
La que extiende su manto,
D
desde la ermita, sobre la arena.
Sobre la arena, nia,
file:///C|/Archivos%20de%20programa/eMule/Incoming/_cancionero-guitarra-bandurria_(1)/PopurriCanario.html (1 de 3)01/11/2008 10:45:18 p.m.

Popurr Canario

G A7
sobre la arena, sobre la areena.
Virgen de Candelaria,
D
la ms bonita, la ms morena.

D
G
A7
Dicen que te vas, dicen que te vas para La Gomera,
D
Dicen que te vas, dicen que te vas, pero no me llevas.
G
A7
Pero no me llevas, pero no me llevas, pero no me llevas,
D
Dm
Dicen que te vas, dicen que te vas para La Gomera.

Dm
Gm A7 (Gm / A7 / Gm / A7)
Todas las canarias sooon,
Dm
como ese Teide gigante,
Gm A7 (Gm / A7 / Gm / A7)
llevan nieve en el semblante,
Dm
y fuego en el corazn,
Gm A7 (Gm / A7 / Gm / A7)
y fuego en el corazn,
Dm
todas las canarias son.

D
Quiero que te pongas la mantilla blanca,
G
A7
quiero que te pongas la mantilla azul,
quiero que te pongas la de colorado,
D
quiero que te pongas la que sabes t.
G
A7
La que sabes t, la que sabes t,
quiero que te pongas la mantilla blanca,
D
file:///C|/Archivos%20de%20programa/eMule/Incoming/_cancionero-guitarra-bandurria_(1)/PopurriCanario.html (2 de 3)01/11/2008 10:45:18 p.m.

Popurr Canario

quiero que te pongas la mantilla azul.

A7 D
ISA!

file:///C|/Archivos%20de%20programa/eMule/Incoming/_cancionero-guitarra-bandurria_(1)/PopurriCanario.html (3 de 3)01/11/2008 10:45:18 p.m.

Popurr Vasco

POPURRI VASCO

D
D7
G
Y a m me gusta el pi, pirib, p p,
A7
D
de la bota empinar, paraba, pa pa.
D7
Con el pi, piribi, pi pi
G
con el pa, paraba, pa pa,
A7
D
B7 Em
A7 D
y al que no le guste el vino es un animal, es un animal.
G A7
D
G
A7 D
O no tiene un real que es lo ms normal.

D
D7
G
Cuando yo me muera tengo ya dispuesto
A7
D
B7
Em
A7
D
en el testamento que me han de enterrar, que me han de enterrar,
D7
G
en una bodega al pie de una cuba,
A7
D
B7 Em
A7
D
con un grano de uva en el paladar, en el paladar.

A7
D
Apaga luz, Mari Luz, apaga luz,
A7
D
que yo no puedo vivir con tanta luz.
Los borrachos en el cementerio,
G A7
D
juegan al mus.

D
G
A7
D
Pobrecitos los borrachos que estn en el Camposanto,
D
G
A7
D
pobrecitos los borrachos que estn en el Camposanto,
G
A7
D
Que Dios los tenga en la Gloria por haber bebido tanto.

file:///C|/Archivos%20de%20programa/eMule/Incoming/_cancionero-guitarra-bandurria_(1)/PopurriVasco.html (1 de 2)01/11/2008 10:45:18 p.m.

Popurr Vasco

Apaga luz, Mari Luz . . .

D
G
Si te ha pillao el toro jdete, jdete!,
A7
D
Si te ha pillao el toro jdete, jdete!
D
G
Si te ha pillao el toro jdete, jdete!,
D
A7
D
Si te ha pillao el toro, te vuelves a joder.

Ebd

A7
Si te ha pillao, si te ha pillao, si te ha pillao el carrito del
helao,
Em
A7
Em
A7
D
Si te ha pillao, si te ha pillao, si te ha pillao el carrito del
helao,
D
D7
G
Si te ha pillao, si te ha pillao, si te ha pillao el carrito del
helao,
D
A7
D
Si te ha pillao el toro, te vuelves a joder.

file:///C|/Archivos%20de%20programa/eMule/Incoming/_cancionero-guitarra-bandurria_(1)/PopurriVasco.html (2 de 2)01/11/2008 10:45:18 p.m.

El preso n 9

EL PRESO N 9

(Hnos. Cantoral)

Am
E
Am
G
F
E
Al preso nmero nueve ya lo van a confesar,
Am
E
Am
G
F
E
est rezando en la celda, con el cura del penal.
E7
Am
Porque antes de amanecer, la vida le han de quitar,
G
F
E
porque mat a su mujer y a un amigo desleal.

E7
Am
Dice as al confesar:
G
Los mat, si seor,
F
y si vuelvo a nacer,
E
yo los vuelvo a matar.

Dm
Padre no me arrepiento,
Am
ni me da miedo la eternidad,
E
yo s que all en el cielo el ser supremo me ha de juzgar,
Dm
E
Am
voy a seguir sus pasos, voy a buscarlos al ms all.

Am
E
Am
G
F
E
El preso nmero nueve era un hombre muy cabal.
Am
E
Am
G
F
E
Iba la noche del duelo muy contento a su jacal.
E7
Am
Pero al mirar a su amor en brazos de su rival,
G
F
E
sinti en su pecho el rencor y no se pudo aguantar.

E7
Am
Al sonar el clarn,
file:///C|/Archivos%20de%20programa/eMule/Incoming/...cionero-guitarra-bandurria_(1)/PresoNumeroNueve.htm (1 de 2)01/11/2008 10:45:18 p.m.

El preso n 9

G
se form el pelotn,
F
y rumbo al paredn,
E
se oy al preso decir:

Dm
Padre no me arrepiento...

file:///C|/Archivos%20de%20programa/eMule/Incoming/...cionero-guitarra-bandurria_(1)/PresoNumeroNueve.htm (2 de 2)01/11/2008 10:45:18 p.m.

Que nadie sepa mi sufrir

QUE NADIE SEPA MI SUFRIR

(Angel Cabral / Enrique Direo)

Am
A7
Dm
No te asombres si te digo lo que fuiste,
G7
C
una ingrata con mi pobre corazn,
E7
Am
porque el fuego de tus lindos ojos negros
F
E7
alumbraron el camino de otro amor.

Am
A7
Dm
Y pensar que te adoraba tiernamente,
G7
C
y a tu lado como nunca me sent,
E7
Am
y por esas cosas raras de la vida
F
E7
Am
sin el beso de tu boca yo me vi.

G7
C
Amor de mis amores, reina ma, qu me hiciste,
G7
C
que no puedo conformarme sin poderte contemplar,
E7
Am
ya que pagaste mal mi cario tan sincero,
F
E7
slo conseguirs que no te nombre nunca ms.

G7
C
Amor de mis amores, si dejaste de quererme
G7
C
no hay cuidado que la gente de esto no se enterar,
E7
Am
qu gano con decir que una mujer cambi mi suerte
F
E7
Am
se burlarn de m, que nadie sepa mi sufrir.

La 2 parte es un aadido que no pertenece a la cancin original.

Am
A7
Dm
El silencio que se quiebra en la guitarra,
G7
C
nuestra voz, amor, lo hace en su cantar,
E7
Am
y la noche lo convierte en serenata,
F
E7
a unos ojos que me niegan su mirar.

Am
A7
Dm
Si la noche consiguiera su mirada,
file:///C|/Archivos%20de%20programa/eMule/Incoming/_...ero-guitarra-bandurria_(1)/QueNadieSepaMiSufrir.html (1 de 3)01/11/2008 10:45:18 p.m.

Que nadie sepa mi sufrir

G7
C
las estrellas perderan su brillar,
E7
Am
y entre notas de bandurrias y guitarras,
F
E7
Am
nuestra ronda te dara este cantar.

INTRODUCCIN:
64,

60, 61, 62, 63, 64, Dm, 40, 53, 52, 50, Am, 50, 63, 61, 60, E, 60, 62,
50, 60 (2 veces y en la 2) E, 60, 62, 64, 50, 53, 42, 50

CIFRADOS
|------------5-3-2--5-3-2--5-3-2--5-3-2--3-2-0--3-2-0--3-2-0--3-2-0---2-0----2-0----20-|-0-1-2-3-4---------------------------------------------------------------4-----4------|----------------------------------------------------------------------------------------

|----2-0---0----------|-4------4----- BIS -0------|----------------1----|------------------3---

No te_asombres si te digo lo que fuiste, una_ingrata con mi pobre corazn, porque_el


|---------0-------0--2--3-2--0------0------2--3----5-3--2---3--5--3--20----------------|--0---0------4------------------4------1--------------------------------3----0---0----|----------------------------------------------------------------------------------------

fuego de tus lindos ojos negros alumbraron el camino de_otro_amor. Y pensar que
|-----------0---2--2--0-----2--0--0-0---0-0--0---0-0-0---2----3--2--------0------------|--4--4--4--------------4--------------------------------------------0--0------4-------|----------------------------------------------------------------------------------------

te_adoraba tiernamente, y_a tu lado como nunca me sent. Y por esas cosas raras de la
|---0--2-3-2--0-----0------2---3--5-3--2-3--5--3--2--0-------------------0---2-2--0----|-----------------4----1--------------------------------3--0--0--4-4---4-------------4-|----------------------------------------------------------------------------------------

vida sin el beso de tu boca yo me vi.


|--2-0--0--0---0-0--0--0-------3--2--0---|-------------------------4-4------------|-----------------------------------------

file:///C|/Archivos%20de%20programa/eMule/Incoming/_...ero-guitarra-bandurria_(1)/QueNadieSepaMiSufrir.html (2 de 3)01/11/2008 10:45:18 p.m.

Que nadie sepa mi sufrir

Amor de mis amores, reina m_a, que me_hiciste que no puedo conformarme sin poderte
|---0-----------2-0----0-----2-0----0-------3--0---0-----3--0--0-----2--0--0-----2-0---|-3-----3--2--3-----------3-------------3-------------3-----------3-----------3--------|----------------------------------------------------------------------------------------

contemplar. Ya que pagaste mal mi cario tan sincero solo conseguirs que no te nombre
|------------------------------------0-2-2--0------2-0--0-0--0--0--0-0----0--0--0--0--0|-3---1---0----0---1--0----0--4---4------------4---------------------------------------|----------------------4----------------------------------------------------------------

nunca ms. Amor de mis amores si dejaste de quererme no_hay cuidado que la gente
|--2--3--2-----0-----------2-0---0----2--0--0-----3--0---0--------3-0---0-----2-0------|------------3-----3--2--3----------3-----------3--------------3----------3------------|----------------------------------------------------------------------------------------

de_esto no se_enterar, que gano con decir que_una mujer cambi mi suerte, se burlarn
|---0------2---0--------------------------------------0-2---2--0------2---0---0--0--00-|-------3----------3-1-0----0--1-0------0-4-----4--4--------------4--------------------|----------------------------------4----------------------------------------------------

de mi que nadie sepa mi sufrir.


|--0--0---0--0-0--------3--2--0----|------------------4-4-------------|-----------------------------------

file:///C|/Archivos%20de%20programa/eMule/Incoming/_...ero-guitarra-bandurria_(1)/QueNadieSepaMiSufrir.html (3 de 3)01/11/2008 10:45:18 p.m.

Quireme mucho

QUIREME MUCHO

(J.M. Lacalle)

Dm
A7
Quireme mucho
Dm A7
dulce amor mo,
Dm
Gm
que amante siempre
A7
te adorar.

Gm
Yo con tus besos
Dm
y tus caricias
E7
A7
mis sufrimientos
D / B7 / Em / A7
acallar.

D
A7
D
Cuando se quiere de veras,
Ebd
A7
como te quiero yo a ti,
Em
A7
es imposible, mi cielo,
Em
A7 D / B7 / Em / A7
tan separados vivir.

D
A7
D
Cuando se quiere de veras,
Ebd
A7
como te quiero yo a ti,
Em
A7
D
es imposible mi cielo,
B7
Em
tan separados vivir.

A7
D B7 Em A7 D
Tan separados
vivir.
file:///C|/Archivos%20de%20programa/eMule/Incoming/_cancionero-guitarra-bandurria_(1)/QuieremeMucho.html01/11/2008 10:45:18 p.m.

Recuerdos

RECUERDOS

(E. Joffre)

Dm
D7
Gm
Mucho tiempo te dediqu,
C
F
mi vida entera yo te la di,
Bb7
A7
y hoy solo queda de aquel ayer,
Gm
A7
Dm
los mil recuerdos que dejaste.

D7
Gm
Se que tienes otro querer,
C
que no lo quieres tambin lo
Bb7
cuando le abrazas piensas en
Gm
A7
y en los mil besos que yo te

F
se,
A7
m,
Dm
di.

D7
Gm
Quieres alejarte de mi,
C
F
cuanto ms lejos recordars,
Bb7
A7
y a cada instante repetirs,
Gm
A7
Dm / A7 / Dm
las siete letras de mi nombre.

INTRODUCCIN:

Dm / C / F / Gm / Dm / A7 / Dm / C / F / Gm / A7 / Dm / A7 / Dm

CIFRADOS
|----------------------0-0-0-0-0-----1-1-1-1-5-----0-00--------------------------------|--------0-1-0-1-3---1-------------3-------------1-------3-1-0---------0-1-0-13--------|--3-2-3---------------------------------------------------------3-23------------------|
|
|-------------------------------------------0------------------------------------------|----------------0-----1-1-1-1-1---0-3-3-3-3-------1-1-1-0--------------------0--------|--------2-3-2-3-----3---------------------------3---------3-----------2-3-23----------|--4-3-4-----------------------------------------------------4---4-34-------------------

|----0-0-0-0-0-----------------------0-5--file:///C|/Archivos%20de%20programa/eMule/Incoming/_cancionero-guitarra-bandurria_(1)/Recuerdos.html (1 de 3)01/11/2008 10:45:19 p.m.

Recuerdos

|--1-------------0-3-3-3-3-1-0-----1------|--------------------------------3--------|
|
|-----------------------------------------|----1-1-1-1-1-----0-0-0------------------|--3-------------3-------3----------------|--------------------------4-3-------------

Mucho tiempo te dediqu, mi vida_entera yo te la di, y_hoy solo queda de_aquel ayer
los
|--0--5--5---5--5--5-3--1---5--5--5---7-5--3--5--1--0---0-----0-0---3-1--0-------------|-----------------------------------------------------------------------------3--1-0--0|---------------------------------------------------------------------------------------|
|
|--0--0---------------------1--1--1---3-1--01---------------------0-------------------|--------1---1--2--2-2--3------------------------3--1---1-----1-1-----3---1--0---------|--------------------------------------------------------------------------------3-2--2-

mil recuerdos que dejaste. Se que tienes otro querer, que no lo quieres tambin lo se,
|---------------------------------0--1--0---------0-1-----5--5--5---7--5---3--5----1-0-|--0---0-3---1----0--1-0------3------------3-3-----------------------------------------|------------------------3-------------------------------------------------------------|
|
|---------------------------------------------------------1--1--1---3--1---0-1---------|--------0--------------------0---1--3--1--0--0---1-3------------------------------3-1-|--2---2-----3----2--32----------------------------------------------------------------|------------------------3--------------------------------------------------------------

cuando le_abrazas piensas en mi, y_en los mil besos que yo te di. Quieres alejarte de
|--0---0---0---3-1---0---------------------------------------------------0--1-0------0-|------------------------3--1---0---0----0---0---3-1----0--1--0-------3---------3-3----|---------------------------------------------------------------3----------------------|
|
|--------------

file:///C|/Archivos%20de%20programa/eMule/Incoming/_cancionero-guitarra-bandurria_(1)/Recuerdos.html (2 de 3)01/11/2008 10:45:19 p.m.

Recuerdos

0------------------------------------------------------------------------|--1---1---1-----3---1---0-----------------------0--------------------0--1--3-1-0--0-1-|---------------------------3---2---2----2---2-----3----2--3-2-------------------------|---------------------------------------------------------------3-----------------------

mi, cuanto ms lejos recordars, y_a cada_instante repetirs las siete letras de mi
|--1---5---5--5---7-5---3-5--1-0----0---0--0----3--1-0---------------------------------|-------------------------------------------------------3-1-0---0---0--0--3--1---0-1---|---------------------------------------------------------------------------------------|
|
|------1---1--1---3-1---0-1--------------------0---------------------------------------|--3-------------------------3-1----1---1--1-------3--1-0----------------0-------------|---------------------------------------------------------3-2---2---2--2-----3---2-3----

nombre.
|----------0-5--|--0-----1------|------3--------|
|
|----------|----------|--2-------|------3----

nombre___________e
--4---5-4-5-4-5-5-5----0---1-0-1-0-1-1-1------------------------

--------------------------------------------2---3-2-3-2-3-3-3------------------------

file:///C|/Archivos%20de%20programa/eMule/Incoming/_cancionero-guitarra-bandurria_(1)/Recuerdos.html (3 de 3)01/11/2008 10:45:19 p.m.

Recuerdos de ti

RECUERDOS DE TI

(Dr. Roque Carbajo)

A
C#m7
Hoy que te encuentras solita
Bm7
tan lejos de m.
E7
Bm7
No sabes cuanto te extrao
E7
A
y sufro por ti.

C#m7
Bm7
Cuando te tuve cerca de mi vida,
E7
A F#7 / Bm / E7
nunca me imagin que te quera.

A
C#m7
T sabes cuntos amores
Bm7
dej por ah.
E7
Bm7
Pero de todos juntitos
C#7
me acuerdo de ti.

D
Dm
No llores corazn,
A
F#7
no me hagas padecer,
Bm7
E7
que falta mucho tiempo
A
para volver.

file:///C|/Archivos%20de%20programa/eMule/Incoming/_cancionero-guitarra-bandurria_(1)/RecuerdosDeTi.html01/11/2008 10:45:19 p.m.

Recuerdos de Ypacara

RECUERDOS DE YPACARA

(Demetrio Ortiz)

G
Una noche tibia nos conocimos,
D7
junto al lago azul de ypacara.
T cantabas triste por el camino,
Am7
D7
G
viejas melodas en guaran.

Y con el embrujo de tus canciones,


G7
C
iba ya naciendo tu amor en m.
F7
G
En la noche hermosa de plenilunio
G7
C
de tus blancas manos sent el calor,
D7
G G7
que con tus caricias me dio el amor.

C
F7
Dnde ests ahora, cuata,
G
Bm7
que tu suave canto no llega a m.
Am7
Dnde estas ahora,
D7
G G7
mi ser te aora con frenes.

C
F7
Todo te recuerda mi dulce amor,
G
Bm7
junto al lago azul de Ypacara,
Am7
todo te recuerda,
D7
G
mi ser te llama, Cuata.

file:///C|/Archivos%20de%20programa/eMule/Incoming/_cancionero-guitarra-bandurria_(1)/RecuerdosDeYpacarai.html01/11/2008 10:45:19 p.m.

El reloj

EL RELOJ

(Roberto Cantoral)

C
Am
Dm
G7
Reloj no marques las horas,
C
Am
Dm G7
porque voy a enloqueceeer,
C
Am
Dm
G7
ella se ir para siempre
C
Am
Dm G7
cuando amanezca otra veeez.

C
Am
Dm
G7
No ms nos queda esta noche,
C
Am
Dm G7
para vivir nuestro amooor.
C
Am
Dm
G7
Y su tic tac me recuerda
C
Am
Dm G7
mi irremediable dolooor.

C
Am
Em
Reloj detn tu camino,
F
C
A7
porque mi vida se apaga,
Dm
G7
C
Am
ella es la estrella que alumbra mi ser,
Dm
G7
C Am / Dm / G7
yo sin su amor no soy naada.

C
Detn el
F
haz esta
Dm
para que
Dm
para que

Am Em
tiempo en tus manos,
C
A7
noche perpetua,
Fm
C
Am
nunca se vaya de m,
G7
C
Am / Dm / G7
nunca amanezca.

file:///C|/Archivos%20de%20programa/eMule/Incoming/_cancionero-guitarra-bandurria_(1)/Reloj.html01/11/2008 10:45:19 p.m.

El rey

EL REY

(Jos Alfredo Jimnez)

A
Yo se bien que estoy afuera,
pero el da en que me muera,
Bbd
E7
se que tendrs que llorar.
Llorar, llorar, llorar y llorar.

Dirs que no me quisiste,


pero vas a estar muy triste,
A
y as te vas a quedar.

D
Con dinero y sin dinero,
hago siempre lo que quiero,
B7
E7
y mi palabra es la ley.
Bm
E7
No tengo trono ni reina,
Bm
E7
ni nadie que me comprenda,
Bm
E7
A
pero sigo siendo el Rey.

A
Una piedra en el camino,
me ense que mi destino
Bbd
E7
era rodar y rodar.
Rodar, rodar, rodar y rodar.

file:///C|/Archivos%20de%20programa/eMule/Incoming/_cancionero-guitarra-bandurria_(1)/Rey.html (1 de 2)01/11/2008 10:45:19 p.m.

El rey

Despus me dijo un arriero,


que no hay que llegar primero,
A
pero hay que saber llegar.

Con dinero y sin dinero...

file:///C|/Archivos%20de%20programa/eMule/Incoming/_cancionero-guitarra-bandurria_(1)/Rey.html (2 de 2)01/11/2008 10:45:19 p.m.

Ro manso

RIO MANSO

(Cholo Aguirre)

E
Mirando correr el ro,
le dije casi en silencio,
B7
vas a tener que andar mucho
E
para ganarle a mi sueo.

G#
C#m
Y sobre la arena fresca
B7
E7
la cabeza dibuj,
Am
Em
de una pasin imposible
B7
Em
que me escriba de Santa Fe.

|
| BIS
|

E
Fue una noche correntina
de aquellas que no se igualan,
B7
estaba la costanera
E
platicando con el agua.

G#
C#m
Enero estaba fundiendo
B7
E7
sobre el ro su calor,
Am
Em
y junto al perfil querido
B7
Em
puse mi vida de verseador.

|
| BIS
|

Em
Mira que cabeza loca,
file:///C|/Archivos%20de%20programa/eMule/Incoming/_cancionero-guitarra-bandurria_(1)/RioManso.htm (1 de 2)01/11/2008 10:45:20 p.m.

Ro manso

B7
poner tus ojos en mi,
Am
yo que siempre ando de paso,
B7
Em
no podr hacerte feliz.

Olvdame te lo ruego,
E7
Am
yo soy como el Paran,
Em
que sin detener su marcha,
B7
Em
besa la playa y se va.

|
| BIS
|

file:///C|/Archivos%20de%20programa/eMule/Incoming/_cancionero-guitarra-bandurria_(1)/RioManso.htm (2 de 2)01/11/2008 10:45:20 p.m.

Ronda del silbido

RONDA DEL SILBIDO

D
El da que yo me case
|
A7
D (/D7)| BIS
ha de ser a gusto mo,
|
G
D B7
has de salir al balcn
Em
A7
al tiempo de hacer yo...
D
A7
Po, po, po, pa, po, pa,
D
A7
D
po, po, po, pa, po, pa, pa, para bara ba.

D
Si me caso y tengo suegra
A7
D (/ D7)
ha de ser a condicin
G
D B7
que si al ao no se muere
Em
A7
la tiro por el bal...

|
| BIS
|

D
A7
Po, po, po, pa, po, pa,
D
A7
D
po, po, po, pa, po, pa, pa, para bara ba.

D
Muerto de hambre y sin cenar
A7
D (/ D7)
y tiritando de fro,
G
D B7
estoy pasando y pasando
Em
A7
solo por hacer yo...

|
| BIS
|

D
A7
Po, po, po, pa, po, pa,
D
A7
D
po, po, po, pa, po, pa, pa, para bara ba.

D
Y aqu se acaba la historia
A7
D (/ D7)
de aquellos amores mos
G
D B7
ella se march con otro
Em
A7
yo me qued haciendo...

|
| BIS
|

D
A7
Po, po, po, pa, po, pa,
file:///C|/Archivos%20de%20programa/eMule/Incoming/_cancionero-guitarra-bandurria_(1)/RondaDelSilbido.htm (1 de 2)01/11/2008 10:45:20 p.m.

Ronda del silbido

D
A7
D
po, po, po, pa, po, pa, pa, para bara ba.

CIFRADOS
El d_a que yo me ca_ase ha de ser a gusto m_o.
El d_a que yo me ca_ase
|--------------------0-5-0-----------------------------0---------------------------0-50|-----2-2---3--2--3---------3--3--3--3--0-----0------2---2----------2-2---3--2-3-------|------------------------------------------2----3---------3----------------------------|-3------------------------------------------------------------3-----------------------|
|
|---------------------------------------------------------------------------------------|-----------0-----0--2---2--0--0--0--0------------------------------------0-----0--2--2|-----3-3------3-------3----------------3--2--2-3----2-0-2-3--------3-3------3------3--|-3------------------------------------------------------------3------------------------

ha de ser a gusto m_o.


Has de salir al balc___n al tiempo de_hacer yo
|-----------------------------0---------0---2-------0---2--0-50------------------------|--3--3--3--3--0-----0------2---2--------------3-3----------------3---3---3---3----2-0-|-----------------2----3---------3-----------------------------------------------------|---------------------------------------------------------------------------------------|
|
|---------------------------------------------------------------------------------------|--0--0--0--0---------------------------2---3--0-0--2---3--2-3-2--0---0---0--0---------|--------------3--2--2-3----2-0-2-3-----------------------------------------------3--2-|----------------------------------------------------------------------------------------

p_o, p_o, p_o pa p_o pa p_o, p_o, p_o pa p_o pa pa, para bara ba
|--0-----0---------------------0-----0------------------------------0-------|----2-----2---3-3--3--3-2--0----2-----2---3-3--3--3-0-----------2----2-----|-------------------------------------------------------2--3---3---------3--|
|
|---------------------------------------------------------------------------|--2-----2-----0-0--0--0-------2-----2-----0-0--0--0------------------------|----3-----3-------------3--2----3-----3-------------3--2--3---3-2--0-2--3--|----------------------------------------------------------------------------

file:///C|/Archivos%20de%20programa/eMule/Incoming/_cancionero-guitarra-bandurria_(1)/RondaDelSilbido.htm (2 de 2)01/11/2008 10:45:20 p.m.

Ronda del Firul

RONDA DEL FIRUL

(F. Romero / G. F. Shaw / J. Serrano, de La cancin del olvido)

D
Ya la ronda llega aqu,
A7
D
Firu, liru, l.
A cantarte amores va,
A7
D
Firu, liru, la.
Bm
F#m
Am
G
Sal a tu ventana, que mi canto es para t,
Gm
D
sal napolitana, firul, firul, firul,
A7 D
Firul, ru la.

D
Ebd
A7
Hermosa napolitana, valle florido,
Em
A7
D
rayo de luna clara.
Ebd
no se yo como en el fuego de tus pupilas
A7
Em
A7
D
no se ha fundido la nieve de tu cara.
A7
Bm
F#m
G
Nia de mis amores, que esperas gozar un da
A7
la dicha que da el amor.

D
Ebd
A7
Amor que siembra de flores tu fantasa,
Em
A7
D
da espinas de dolor,
A7
D
nia de mis amores,
A7
D
ya sabes lo que es amar.

Ya la ronda llega aqu . . .

D
A7
Mujer, primorosa clavellina,
G
A7
D
que brindas el amor,
A7
yo soy caminante que al pasar
D
arranca las hojas de la flor
G
A7
D
y sigue adelante sin recordar tu amor.

file:///C|/Archivos%20de%20programa/eMule/Incoming/_cancionero-guitarra-bandurria_(1)/RondaFiruli.htm (1 de 7)01/11/2008 10:45:20 p.m.

Ronda del Firul

[INTRO INSTRUMENTAL]

D
A7
Soldado de Npoles que vas a la guerra,
G
A7
D
vivo recordndote, cantando en tu espera.
G
A7
Cario del alma ven que vas a probar la dicha de amar,
D
A7
oyendo los sones de mis canciones

Dm
A7
Soldado de Npoles me quiso mi suerte,
Gm
A7
Dm
la gloria romntica me lleva a la muerte,
Bb
F
no digas tu cntico que aviva mi pena,
Gm
A7
si muero querindote que muerte tan buena.

D
A7
Soldado de Npoles, que buscas la gloria,
G
A7
D
te espera brindndote la ansiada victoria,
D7
G
no mueras soldado no, cario del alma ven
D
A7
que vas a cantar la dicha de amar,
D
que es gloria tambin.

[INTRO INSTRUMENTAL]

Ya la ronda llega aqu . . .

INTRODUCCIN: A, E7, A, E7, F#m, C#m, D, A, D, A, E7, A, 50, 63, 62, 60

CIFRADOS
|----------------------------------------------------------------00-------------------|--------------0-0-2-4-4--2-0-2-0---0---0-0-2-4-4--2-0-2-0---0-------2-4-4---0-20-----|---0-2-3-2-3---------------------0------------------------0----------------------3---|3------------------------------------------------------------------------------------|
|
file:///C|/Archivos%20de%20programa/eMule/Incoming/_cancionero-guitarra-bandurria_(1)/RondaFiruli.htm (2 de 7)01/11/2008 10:45:20 p.m.

Ronda del Firul

|--------------4-4-5-7-7--5-4-5-4-5-4---4-4-5-7-7--5-4-5-4-5-4---9-9-5-7-7---4-5-42---|--------------------------------------------------------------------------------------|--------------------------------------------------------------------------------------|
|
|--------------0-0-0-0-0--0-0-2-0-2-0---0-0-0-0-0--0-0-2-0-2-0---4-4-5-4-4---4-0-00---|--------------------------------------------------------------------------------------|---------------------------------------------------------------------------------------

|---------------------------------------|--0-------2-2-0-------0----------------|----2-----------3-2-3-----0-2-3-2-0----|------3-----------------------------3--|
|
|--4-0-----5-5-4-2-0-2-4-----0-2-0------|------0-------------------4-------4----|------------------------------------0--|
|
|--0-------0-0-0-0-0-0-0----------------|----0---------------------4-4-4-4-4----|------2-----------------------------2---

--0----------------3--2--0-------------------------------

----------------2--0----------------3--2---

------------------------------3--3--3--3---

Ya la ronda viene_aqu, firu liru l. A cantarte_amores va, firu, liru, la. Sal a tu
|---------------------0----------------0--0--0------0-2---4---2-0-----2---0---5--5-5--|-2--2--2--0--2---3-------3-2--0-3--2------------3-----------------4------------------|--------------------------------------------------------------------------------------|
|
|---------------------------------------------------------0-------------------2--2-2--|-----------------0---2---0------0-----2--2--2---0--2-3-------3-2---0-3--2------------|-3--3--3--2--3-------------3--2---3--------------------------------------------------|
|Ya
la
ron
da vie ne_a qu A
can
tar te_a mo
res
va Fi
ru
|--------------------------------------------------------------------------------------|-------------------------0----------------------------------0------------------------|-3-----------3----------------------3-3------------3---------------------3---3----3--|-------3-------------3---------3------------3------------3--------3-------------------

Ventana que mi canto_es para ti, sal napolitana firul, firul, firul, firul rula.
|-5--4-2---0--2--3---3----3-3--2---1---1-1-1-0--------0-------0-------0------0--------file:///C|/Archivos%20de%20programa/eMule/Incoming/_cancionero-guitarra-bandurria_(1)/RondaFiruli.htm (3 de 7)01/11/2008 10:45:20 p.m.

Ronda del Firul

|----------------------------------------------3--2-3-----2-3-----2-3-----2-3----32---|--------------------------------------------------------------------------------------|
|
|-2--0-----------0---0----00----------------------------------------------------------|------3---2--3----------------3---3---3-3-3-2-0----0-2-----0-2-----0-2-----0-2-0-----|-------------------------------------------------3---3---3---3---3---3---3---3---3---|
|
l
fi
ru
la firuli_________i
firul, firul, firul, firul
rula.
|--------------------------------------------------------------------------------------|--------------------------------------------------------------------------------------|----2-----------1--------1----0--00--------------------------------------------------|-------------------------------------4---------3----3-3-3---3-3-3---3-3-3---3-3-3--33-

Ya la ronda... [Final]...firul rula.


|-0-----------------------------------0-2-4--7-5---|---3-2-0------------------------------------------|--------------------------------------------------|
|
|-----------------------------------------0--------|-2-0---------------------------------2-3----3-2---|-----3-2--------------------------------------3---|
|
|--------------------------------------------------|--------------------------------------------------|-3-3-3-3--------------------------------------3---|-------------------------------------3-3-3--3-3----

Hermosa napolitana. . .Nia de mis amores que_esperas gozar un d_a la dicha que da_el
|------------------------0-0--0--0--0-2-2-----2---4-4---4-4--4---5-5--5--7--5---7--5--|--------------------------------------------------------------------------------------|---------------------------------------------------------------------------------------

amor. Amor que siembra de flores tu fantas_a, da_espinas de dolo_or. Nia de mis
|-3-4---0-5----5--5----5--5---5-7---4--5--2-4-0--------------0-0----------------------|--------------------------------------------------3---2-0--------2------0-0--0-0-----|------------------------------------------------------------------3------------------|
|
|-----------------------------------0--2---file:///C|/Archivos%20de%20programa/eMule/Incoming/_cancionero-guitarra-bandurria_(1)/RondaFiruli.htm (4 de 7)01/11/2008 10:45:20 p.m.

Ronda del Firul

0------------------------------------------|-------2-2----2--2----2--2---2-2---------3---0----0---------2-2----------------------|------------------------------------------------------3-2--------3------2-2--2-2-----|------------------------------------------------------------------3-------------------

amores ya sabes lo que_es amar.


|------------0-0---0----0----------|-0-2-2---3------------------------|----------------------------------|
|
|----------------------------------|----------------------------------|-2-3-3-----------------------------

Mujer primorosa clavelli_ina que brindas el amor yo soy caminante que_al pasar arranca
|-0-5----4-2-0-2---4-0--2---2---2---4--0--2----0----------------0---------------------|-------------------------3------------------3------------0-2-3-------2----3-0--0--0-2|--------------------------------------------------3-3--------------------------------|
|
|--------0---------0---------------0--------------------------------------------------|---2------3-2-3-----2--3-0-3---3------2--3--0-2--------------0--2--------0-----------|-3------------------------------------------------0--0---2-3---------3------2--2--2-3-

las hojas de la flor y sigue_adelante sin recordar tu_amor.


|------0-2------0----------------0-2--2------0-2--4----7--5----|--3---------3------2--2--2---3----------3---------------------|--------------------------------------------------------------|
|
|-------------------------------------------------0----4--0----|--0---2-3---0--2-------------0--2-3--3--0---2-3-------5--2----|-------------------3--3--3-------------------------------------

Soldado de Npoles que vas a la gue_erra vivo recordndote cantando_en tu_espe_era.


|-------------0-0-0----0--0-----------0------------0--2--2-2--2--2---0---------0-20---|--2--2-2--3-----------------3--2---3----3--3-3--3------------------------3-----------|--------------------------------------------------------------------------------------|
file:///C|/Archivos%20de%20programa/eMule/Incoming/_cancionero-guitarra-bandurria_(1)/RondaFiruli.htm (5 de 7)01/11/2008 10:45:20 p.m.

Ronda del Firul

|
|--------------------------------------------------------------------------------------|----------0--2-2-2----2--2--0------0-2--0--0-0--0-2--3--3-3--3--3---2-----0---2-32---|--3--3-3----------------------3-------------------------------------------------------

Cario del alma ven que vas a probar la dicha de_amar oyendo los sones de mis
canciones
|-0-0-2--4--5--5--5----5--5--4---2-4---4--4--2---0--2--2-2--0-----0-------------------|--------------------------------------------------------------3-----2------0---2--0-0|-----------------------------------------------------------------------3-------------|
|
|--------0--0--0--0----2--2--0-----0---0-0--------------------------------------------|-2-2-3--------------------------3-----------3---2--3--3-3--2--0--2-------------------|--------------------------------------------------------------------3---0--2---3--2-2-

Soldado de Npoles te quiso mi suerte_e la gloria romntica me lleva_a la muerte_e no


|-------------0-0-0---0---0-----------0--------------0-1--1-1--1---1--0------0---1-0-0|--0--0-1--3----------------3--1--3-----3--3---3-3-----------------------3------------|--------------------------------------------------------------------------------------|
|
|--------------------------------------------------------------------------------------|----------0--1-1-1---1---1-0-----0---1-0--0---0-0---1-3--3-3--3---3--1---0--1---3-1-1|--1--1-3---------------------3--------------------------------------------------------

digas tu cntico que_aviva mi pe_ena si muero querindote que muerte tan bue_ena.
|--0-1---3--5--5-5----5--5-3--1--3-5-3------------0-1---1-1---1--1---0------0--10-----|---------------------------------------1--1--3------------------------3--------------|--------------------------------------------------------------------------------------|
|
|-------0--1--1-1----1--1-0-----0-10--------------------------------------------------|-1-3------------------------3---------------0---1-3---3-3---3--3---1--0---1--30------|--------------------------------------3-3---------------------------------------------

file:///C|/Archivos%20de%20programa/eMule/Incoming/_cancionero-guitarra-bandurria_(1)/RondaFiruli.htm (6 de 7)01/11/2008 10:45:20 p.m.

Ronda del Firul

Soldado de Npoles que buscas la glo_oria te_espera brindndote la_ansiada victo_oria


|-------------0-0-0----0--0------------0----------------0--2--2-2---2---2--0-----0-20-|--2--2-2--3-----------------3---2---3---3----3---3-3------------------------3--------|--------------------------------------------------------------------------------------|
|
|--------------------------------------------------------------------------------------|----------0--2-2-2----2--2--0-------0-2-0----0---0-0---2--3--3-3---3---3--2--0--2-32-|--3--3-3-----------------------3------------------------------------------------------

no mueras soldado no cario del alma ven que vas a cantar la dicha de_amar que_es
|--0--0--2---4--5-5--5--5-5-4--5--7--7--7----7--7--5--7--9---7--5--4---5--7----5------|--------------------------------------------------------------------------------------|-------------------------------------------------------------------------------------|
|
|------------0--0-0--0--2-2-0--2--2--2--2----2--2--0-----0---0-0----------------------|--2--2--3--------------------------------------------3------------3---2--3----3------|--------------------------------------------------------------------------------------|
|
|------------0----------2-2-0-2-------------------------------------------------------|--2--2--3------2-2--2------------3--3--3----3--3--2--0--2---2--2--0------0----0------|---------------------------------------------------------------------3----------------

gloria tambin.
|---4-2---4--5-----|------------------|------------------|
|
|------------0-----|---3-2---0--2-----|------------------|
|
|------------------|---0--------------|-----3---2--3------

file:///C|/Archivos%20de%20programa/eMule/Incoming/_cancionero-guitarra-bandurria_(1)/RondaFiruli.htm (7 de 7)01/11/2008 10:45:20 p.m.

Rondalla

LA RONDALLA

(Alfonso Esparza Oteo)

Am
E7
Am
En esta noche clara de inquietos luceros
Dm
Am
E7
Am
lo que yo ms quiero te vengo a decir.
Am
E7
Am
En tanto que la Luna extiende en el cielo
Dm
Am
E7
Am
su plido velo de plata y zafir.

G7
C
Y en mi corazn siempre ests,
G7
F
E7
y no puedo olvidarte jams.
G7
C
Porque yo nac para ti,
G7
F
E7
y en mi alma la reina sers.
Am
E7
Am
En esta noche clara de inquietos luceros
Dm
Am
E7
A
lo que yo ms quiero te vengo a decir.

A
Abre el balcn y el corazn
Bbd
E7
siempre que pase la ronda
Bm
E7
mira mi bien que yo tambin
Bm
E7
A
tengo una pena muy honda.

Para que ests cerca de mi


A7
D
te bajar las estrellas
Dm
A
y en esta noche callada
F#
Bm
E7 A / E7 / A
de toda mi vida ser la mejor.

CIFRADOS
|-------------0------------------------------------------------------------------------|--1-0---0-1-----3-1-0----0-------0---3-1-0------------------1-0--------------0--------|------3---------------3----3-1-3-----------3-1--3-1-0-1-3-------3-1-0-1-0-1-3-------01|---------------------------------------------------------------------------------3----|
file:///C|/Archivos%20de%20programa/eMule/Incoming/_cancionero-guitarra-bandurria_(1)/Rondalla.htm (1 de 4)01/11/2008 10:45:21 p.m.

Rondalla

|
|---------------------------------------------------------------------------------------|--------------1-0------------------0--------------------------------------------------|--3-1-0-1-3-------3-1-0-1-0---0-1-----3-1-0---0-------0---3-1-0-----------0-1-----01--|----------------------------3---------------3---3-2-3-----------3-2-3-2-3------3-------

|--------------0------------------------------------------------------------------0----|--1-0---0-1-----3-1-0----0-------0---3-1-0------------------1-0--------------0---0----|------3---------------3----3-1-3-----------3-1--3-1-0-1-3-------3-1-0-----1------1----|-----------------------------------------------------------------------3---------3----|
|
|-----------------------------------------------------------------------0--------------|--------------1-0-------------------0-------------------------------0--0--------------|--3-1-0-1-3-------3-1-0-1-0---0-1-----3-1-0---0-------0---3-1-0---1----1--------------|----------------------------3---------------3---3-2-3-----------3------3---------------

En esta noche clara de_inquietos luceros lo que yo ms quiero te vengo_a decir


|----------0--2---3-3---3-----2-3---2-0--------------------0----------------------3-20-|-0--2--4-------------------------------0---0---1--3--1-------0--0--1---3---10---------|---------------------------------------------------------------------------------------|
|
|----------0--2---0-0---0-------0------------------------------------------------0-----|-0--2--4---------------------4-----4-0------------0-------0------------0-----------31-|---------------------------------------1---1---3-----3-------1--1--3-------31----------

En tanto que la Luna extiende_en el cielo su plido velo de plata_y marfil.


|--------------------0--2--3-3-3--2----3---2----0-------------0------------------------|--3-1-0--0---2--4--------------------------------0--0--1-3-1----0--0---1--3---1-0-----|---------------------------------------------------------------------------------------|
|
|--------------------0--2--0-0-0------0-------------------------------------------------

file:///C|/Archivos%20de%20programa/eMule/Incoming/_cancionero-guitarra-bandurria_(1)/Rondalla.htm (2 de 4)01/11/2008 10:45:21 p.m.

Rondalla

|--0---0--0---2--4----------------4--------4----0---------0----0----------0------------|----3--------------------------------------------1--1--3---3----1--1---3------3-1------

Y_en mi corazn siempre_ests y no puedo_olvidarte jams


|--3-2-0-------------------------2-----0------2--0-----0-------------------------------|--------3-1-0---0-------0-1-3-------------3--------3-------3-1--3--1-0-----0------0---|---------------------3-------------------------------------------------------3-13-----|
|
|-0------------------------------------------------------------------------------------|----3-1-0---0---------------0---3-----1---0--3--1--0---1---0---0----------------------|----------3-----1----0--1-3-----------------------------------3----3-1-----1-0---01---|------------------------------------------------------------------------------3--------

Porque yo nac para ti, y_en mi alma la reina sers.


En esta noche clara
|-----------------2-0-------2---0----0-----------------3-2-0-----------------0--2---33-|--0------01--3-------3----------3-----3--1--3--1-0---------3-1-0--0--2-4-------------|-----3--------------------------------------------------------------------------------|
|
|------------------------------------------------------0---------------------0--2---00-|--------------0--3-1--0----3---1-0--1--0-----0----------3-1-0---0--0--2-4-------------|--1---0--1-3------------------------------3-----3-1----------3-------------------------

de_inquietos luceros lo que yo ms quiero te vengo_a decir.


|---3----2--3---2-0--------------------0-----0------0---2-0---|-------------------0---0---1--3--1-------0-----4-------------|-------------------------------------------------------------|
|
|---0-------0-------------------------------------------------|--------4------4-0------------0-------0--0--0--0---0---0-----|-------------------1---1---3-----3-----------------------2----

Abre_el balcn, y_el corazn, siempre que pase la ronda. Mira mi bien que yo
|---------4---4----7--4----2----2-2-2----0----0---0--0-2------------2-2--2--2-----0--

file:///C|/Archivos%20de%20programa/eMule/Incoming/_cancionero-guitarra-bandurria_(1)/Rondalla.htm (3 de 4)01/11/2008 10:45:21 p.m.

Rondalla

0--|--0-2-4--------------------------------------------------4-0--------------------------|--------------------------------------------------------------3-----------------------|
|
|---------0---0------0-----------------------------------------------------------------|--0---0-----------4-------4----4-4-4----0----0---0--0-0------------2-2--2--2-----0-0--|----3----------------------------------------------------3--2-0------------------------

tambin tengo_una pena muy honda. Para que_ests cerca de m te bajar las estrellas
|--0--0----------------2-------------4-4----4---4---2--2--2--2--0--0-0-0--4-0----------|----------4---4-----4----4---0--------------------------------------------------3-2---|-------------------------------2------------------------------------------------------|
|
|------------------------------------0-0----0--0---------------------------------------|--0--0----0---0-----0-0----------------------------4--4--4--4--0--0-0-4--2--0--0------|-------------------------3---2----------------------------------------------------3---|-------------------------------3-------------------------------------------------------

y_en esta noche callada de toda mi vida ser la mejor.


|--0---0--0--0----------------------------------0--2-0---|---------------3--1--0-2--0--2-0--2--4-4--4-4-----------|--------------------------------------------------------|
|
|---------------------------------------------------------|--1---1--1--1--0---------------------0-0--0-0--2--4-0----|------------------3--2-3--2--3-2--3-----------------------

file:///C|/Archivos%20de%20programa/eMule/Incoming/_cancionero-guitarra-bandurria_(1)/Rondalla.htm (4 de 4)01/11/2008 10:45:21 p.m.

Rosa de Cuba

ROSA DE CUBA

Dm
A7
Esta cancin, que va hacia ti,
Dm
es mi pasin, es el sentir,
D7
t eres mi amor, bella y gentil,
Gm
Dm
y tus encantos me gustan tanto
A7
Dm
que no los puedo ya resistir.

D7
Tu eres mi vida, bella y gentil,
Gm
Dm
y tus encantos me gustan tanto
A7
Dm
que no los puedo ya resistir.

Tus ojos negros son dos luceros,


A7
y son tus labios fresa y jazmn.
Y es tu carita mi cubanita,
Dm
como una rosa en el mes de abril.

Te quiero tanto que por ti muero,


D7
Gm
Ay! Cubanita, muero por ti.
Dm
Rosa de Cuba, Rosa de abril,
A7
Dm D7
yo por ti muero, muero por ti.
Gm
Dm

file:///C|/Archivos%20de%20programa/eMule/Incoming/_cancionero-guitarra-bandurria_(1)/RosaDeCuba.htm (1 de 2)01/11/2008 10:45:21 p.m.

Rosa de Cuba

Rosa de Cuba, Rosa de abril,


A7
Dm
yo por ti muero, muero por ti.

file:///C|/Archivos%20de%20programa/eMule/Incoming/_cancionero-guitarra-bandurria_(1)/RosaDeCuba.htm (2 de 2)01/11/2008 10:45:21 p.m.

Sabor a mi

SABOR A MI

(lvaro Carrillo)

G7
C
F7
Tanto tiempo disfrutamos de este amor,
G
nuestras almas se acercaron tanto as,
Bbd
Am7
que yo guardo tu sabor,
D7
G
pero t llevas tambin sabor a m.

G7
C
F7
Si negaras mi presencia en tu vivir,
G
bastara con abrazarte y conversar,
Bbd
Am7
tanta vida yo te di,
D7
G / F7 / GM
que por fuerza tienes ya sabor a m.

Dm7 G7
Dm7
G7
No pretendo ser tu dueo,
C
Dm7
C
no soy nada, yo no tengo vanidad.
Em7 A7
Em7
A7
De mi vida doy lo bueno,
D7
Am7
D7
soy tan pobre qu otra cosa puedo dar.

G7
C
F7
Pasarn ms de mil aos, muchos ms,
G
y no se si tendr amor la eternidad,
Bbd
Am7
pero all tal como aqu,
D7
G
en la boca llevars sabor a m.

file:///C|/Archivos%20de%20programa/eMule/Incoming/_cancionero-guitarra-bandurria_(1)/SaborAMi.htm01/11/2008 10:45:21 p.m.

San Cayetano

SAN CAYETANO

(J. Aragn)

D
A7
D
Hay un lugar en el mundo
Ebd
A7
donde Dios puso la mano,
G
A7
Madrid se llama ese sitio
G
y es en Madrid la verbena
A7
D
ms chula de San Cayetano.

D
A7
D
Las calles engalanadas,
D7
G
la Corrala, qu emocin,
A7
D
B7
recuerdan tiempos pasados,
Em
A7
D
con el chotis verbenero y chulapn.

D
Verbenas y verbenas,
Ebd
A7
la ms chipn,
Em
A7
chavalas de este barrio
Em
A7
D
son las que estn fetn.

D
Verbenas y verbenas,
D7
G
la ms chipn,
D
cohetes, cohetes verbeneros
A7
D
y a bailar a la querms.

file:///C|/Archivos%20de%20programa/eMule/Incoming/_cancionero-guitarra-bandurria_(1)/SanCayetano.htm01/11/2008 10:45:21 p.m.

Santa Brbara

SANTA BRBARA

Am
Santa Brbara bendita,
E7
Am
trai lara la ra, trai la ra.
Am
G
Patrona de los mineros,
F
mira, mira maruxina, mira,
E7
mira como vengo yo.
C
G
Patrona de los mineros,
F
mira, mira maruxina, mira,
E7
Am
mira como vengo yo.

Am
Traigo la cabeza rota,
E7
Am
trai lara la ra, trai la ra.
Am
G
Que me la rompi un costero,
F
mira, mira maruxina, mira,
E7
mira como vengo yo.
Am
G
Que me la rompi un costero,
F
mira, mira maruxina, mira,
E7
Am
mira como vengo yo.

Am
Traigo la camisa roja,
E7
Am
trai lara la ra, trai la ra.
Am
G
De sangre de un compaero,

|
| BIS
|

|
| BIS
|

|
| BIS
|

file:///C|/Archivos%20de%20programa/eMule/Incoming/_cancionero-guitarra-bandurria_(1)/SantaBarbara.htm (1 de 2)01/11/2008 10:45:21 p.m.

Santa Brbara

F
mira, mira maruxina, mira,
E7
mira como vengo yo.
Am
G
De sangre de un compaero,
F
mira, mira maruxina, mira,
E7
Am
mira como vengo yo.

Am
En el pozo Mara Luisa,
E7
Am
trai lara la ra, trai la ra.
Am
G
Murieron cuatro mineros,
F
mira, mira maruxina, mira,
E7
mira como vengo yo.
Am
G
Murieron cuatro mineros,
F
mira, mira maruxina, mira,
E7
Am
mira como vengo yo.

|
| BIS
|

file:///C|/Archivos%20de%20programa/eMule/Incoming/_cancionero-guitarra-bandurria_(1)/SantaBarbara.htm (2 de 2)01/11/2008 10:45:21 p.m.

Sapo cancionero

SAPO CANCIONERO

(Alejandro Flores y Tapia)

G
Am
Sapo de la noche, sapo cancionero
D
G
que vives soando junto a tu laguna,
Am
tenor de los charcos, grotesco trovero,
D
G
que ests embrujado de amor por la Luna.

|
| BIS
|

G
Am
Yo se de tu vida, sin gloria ninguna,
D
G
se de la tragedia, de tu alma inquieta,
Am
y se de tu locura de amor a la Luna,
|
D
G
| BIS
que es locura eterna de todo poeta.
|

Am D
G
Sapo cancionero canta tu cancin,
Am
D
G
que la vida es triste si no la vivimos con una ilusin.

G
Am
T te sabes feo, feo y contrahecho,
D
G
por eso de da tu fealdad ocultas,
Am
y de noche cantas tu melancola,
D
G
y suena tu canto como letana.

|
| BIS
|

G
Am
Repican tus voces en franca porfa,
D
G

file:///C|/Archivos%20de%20programa/eMule/Incoming/_cancionero-guitarra-bandurria_(1)/SapoCancionero.htm (1 de 2)01/11/2008 10:45:22 p.m.

Sapo cancionero

tus coplas son vanas, como son tan bellas,


Am
no sabes acaso que la Luna es fra,
D
G
porque dio su sangre para las estrellas.

|
| BIS
|

file:///C|/Archivos%20de%20programa/eMule/Incoming/_cancionero-guitarra-bandurria_(1)/SapoCancionero.htm (2 de 2)01/11/2008 10:45:22 p.m.

Sebastopol

SEBASTOPOL

(F. Collado)

Am
E7
Am
Escucha nia, este pasacalles
E7
que dedicado a tu belleza va,
por ser la nia ms guapa del barrio
Am
la ms bonita de la localidad.

Am
E7
Am
Adis te dice la Tuna de Ingenieros
E7
adis te dice con este alegre son
pero no olvides muchacha bonita
Am
que te llevamos dentro del corazn.

A
Se va, se va, se va,
Bbd
E7
se va la tuna, ya se va,
Bm
E7
se va, se va, se va, se va,
Bm
E7
A
se va a Sebastopol.

A
Se va, se va, se va,
A7
D
con su amores a rondar,
A F#7
Bm
y mi corazn
nunca jams
E7
A
te olvidar.

INTRODUCCIN:

Am, E7, Am, [E7, Am], Am, E7, Am

(BIS)

CIFRADOS
|----0-2-3--3-2--3-2-0----0-----0-2-3--3-2-0---0-2---2-2-3-5--3-2-0---0-2---2-2-3-5--32|--0--------------------0-----0--------------4---------------------4-------------------|---------------------------------------------------------------------------------------|
|
|---------------------------------------------------------------------------------------|--------0--0----0------------------0--0-----------------0-1--0-----------------0-10---file:///C|/Archivos%20de%20programa/eMule/Incoming/_cancionero-guitarra-bandurria_(1)/Sebastopol.htm (1 de 3)01/11/2008 10:45:22 p.m.

Sebastopol

|--1-1-3------3----3-1--0-1---1-1-3------3-1-0-1-3---3-3--------3-1-0-1-3---3-3------3--

|--3-2-0--|---------|---------|
|
|---------|--0------|----3-1---

Escucha nia este pasacalles, que dedicado a t belleza va. Por ser la chica ms guapa
|-3--2--3--2-0-3--2--0-3-2--0-----3--2-3-2-0-0--2--0----0--2---5---3---5---3-2--5---3-2|----------------------------------------------------4---------------------------------|---------------------------------------------------------------------------------------|
|
|---------------------------------------------------------------------------------------|---------------------------------------------------------------------------------------|-1--0--1--0---1--0----1-0--------1--0-1-0------0----------0---3---1---3---1-0--3---1-0|------------3-------3------3--------------3-3-----3--23--------------------------------

del barrio, la ms bonita de la localidad.


|--5---3--2----5--3---5-3-2--2--3--2-0---0----|--------------------------------------4------|---------------------------------------------|
|
|---------------------------------------------|---------------------------------------------|--3---1--0----3--1---3-1-0--0--1--0----------|------------------------------------3-2-3-----

Se va, se va, se va, se va la Tuna ya se va, se va, se va, se va, se va, se va_a
|-----0-------------0------------0---0-------------------------------------------------|--0------4--2---0------0--2--4----4-----2--4---0--4---4--2------4---4--2---0--4-------|---------------------------------------------------------------------------------------|
|
|---------------------------------------------------------------------------------------|---------0-------------------0--2-0-2-------------------------------------------------|--2--2------3---2--2---2--3-------------3--0---0--0---0--3---2--0---0--3---2--0--------

file:///C|/Archivos%20de%20programa/eMule/Incoming/_cancionero-guitarra-bandurria_(1)/Sebastopol.htm (2 de 3)01/11/2008 10:45:22 p.m.

Sebastopol

Sebastopol. Se va, se va, se va, con sus amores a rondar, y mi corazn nunca jams
|--2-0------------0-------------0------------0-4--2--0--5---5--4--2-5-4---2-0----------|-------2-0----0------4--2---0-------0--2--4------------------------------------20-----|---------------------------------------------------------------------------------------|
|
|---------------------------------------------------------------------------------------|------------------------0-----------------0-2-0--4--3--2---2--0----20-----------------|--3-2--3-2----2--2---2------3--2---2---3-------------------------3-------3--2--00------

te_olvidar.
|---5---4-2-0-----0--|---------------0----|--------------------|
|
|--------------------|-------0------------|---0-----3-2---0-2---

file:///C|/Archivos%20de%20programa/eMule/Incoming/_cancionero-guitarra-bandurria_(1)/Sebastopol.htm (3 de 3)01/11/2008 10:45:22 p.m.

Serenata huasteca

SERENATA HUASTECA

C
G7
Canto al pie de tu ventana,
C
Pa que sepas que te quiero.
G7
T a mi no me quieres nada,
C
pero yo por ti me muero.

F
Dicen que ando muy errado,
C
F
que despierte de mi sueo,
G7
C
pero se han equivocado,
F
G7
C
porque yo he de ser tu dueo.

G7
F
Qu voy a hacer
G7
C
si de veras te quiero.
G7
F
Ya te ador,
G7
C
y olvidarte no puedo.

C
G7
Dicen que pa conseguirte
C
necesito una fortuna,
G7
que debo bajar del cielo,
C
las estrellas y la Luna.

F
Yo no bajar la Luna,
file:///C|/Archivos%20de%20programa/eMule/Incoming/_cancionero-guitarra-bandurria_(1)/SerenataHuasteca.htm (1 de 2)01/11/2008 10:45:22 p.m.

Serenata huasteca

C
F
ni las estrellas tampoco,
G7
C
aunque no tengo fortuna
F
G7
C
me querrs poquito a poco.

Que voy a hacer . . .

C
G7
Yo se que hay muchas mujeres
C
y que sobra quien me quiera,
G7
pero ninguna me importa,
C
slo pienso en ti, morena.

F
Mi corazn te ha escogido,
C
F
y llorar no quiero verlo,
G7
C
el pobre mucho ha sufrido,
F
G7
C
ahora tienes que quererlo.

Que voy a hacer . . .

file:///C|/Archivos%20de%20programa/eMule/Incoming/_cancionero-guitarra-bandurria_(1)/SerenataHuasteca.htm (2 de 2)01/11/2008 10:45:22 p.m.

Serenata tapata

SERENATA TAPATA

(Cortzar / Espern)

C
Mujer abre tu ventana,
F
G7
para que escuches mi voz,
te est cantando el que te ama,
C
con el permiso de Dios.

C
Y aunque la noche est oscura,
C7
F
y aqu no hay ninguna luz,
G7
C
con tu divina hermosura
|
G7
C (C7)
| BIS
la iluminas toda t.
|

D7
G
Yo te juro que ni el Sol,
D7
G
la Luna ni las estrellas,
F
G7
C
juntitas toditas ellas,
G7
C
iluminan como t.

D7
G
T iluminaste mi vida,
D7
G
por eso mujer querida,
F
G7
C
te canto esta noche azul,
G7
C
por eso vengo a robarte,
G7
C
un rayito de tu luz.

CIFRADOS
Mujer abre tu ventana para que_escuches mi voz, te_est cantando_el que te_ama, con el
|-----------------------------------0--0------2---------2--2--2---2-----0---3--2---0-0-|--0-3--3--0-----0--3-0--3-3----3----------3-------3-----------------------------------|------------3-------------------------------------------------------------------------|
|
|--------------------------------------------------------------------------0-----------file:///C|/Archivos%20de%20programa/eMule/Incoming/_cancionero-guitarra-bandurria_(1)/SerenataTapatia.htm (1 de 3)01/11/2008 10:45:22 p.m.

Serenata tapata

|----0--0-----------0----0-0----0---0--1---0--3-----0---3--3--3---3-----1------3---1-1-|--1-------1--0--1---1------------------------------------------------------------------

permiso de Dios. Y_aunque la noche_est_oscura, y_aqu no_hay ninguna luz, con tu


|-----3------------------------------------------------3------------0-1--0----0--0-----|--3----3--1---0----0-----3--0--0--------0---3-0---3-------3----3----------------------|----------------------------------3---------------------------------------------------|
|
|---------------------------------------------------------------------------------------|--0--0-0-----------------0------------------0-----0---0---0-----0--1-3--1----1--1-----|----------3---1----1--------1--1---0----1----1-----------------------------------------

divina_hermosura la_iluminas toda t_, con tu divina_hermosura la_iluminas toda t.


|--2-5--3----0-0-----3----------2----------0---0--2-5--3----0-0-----3----------2-5-3---|----------------3------3-3-1-----3--1-0------------------------3------3-31------------|---------------------------------------------------------------------------------------|
|
|----2--0------------0------------------------------2--0-----------0-------------------|--3---------1-1-0------0-0-----3-0--------1---1--3---------1-1-0------0-0-----3-1-0---|---------------------------3--------3-2----------------------------------3-------------

Yo te juro que ni_el Sol la Luna ni las estrellas juntitas toditas ellas iluminan como
|--5--5--5-7---5---3----2---2--5-5--7--5--5---3--2---2--0-0-----0-2--3-------3-2-5--2--|-------------------------------------------------------------3---------3--3----------3|---------------------------------------------------------------------------------------|
|
|--------------------------------------------0-----------------------------------------|--------------0---2----3--------------0--2------3---3--1-1---0-1-------0--0-3-3-3---30|--3--3--3-3----------------3--3-3--3-----------------------------3-1-------------------

t_. T_iluminaste mi vida, por eso mujer querida te canto_esta noche_azu_ul, por eso

file:///C|/Archivos%20de%20programa/eMule/Incoming/_cancionero-guitarra-bandurria_(1)/SerenataTapatia.htm (2 de 3)01/11/2008 10:45:22 p.m.

Serenata tapata

|---------5--5-5-7--5--3--3-2---2--5-5--7-5----5-3-2--2--0---0------0---2--3---------32|--1-0-----------------------------------------------------------3-----------3---3-----|---------------------------------------------------------------------------------------|
|
|-----------------------------------------------0--------------------------------------|-------------------0--2--2-3-------------0----2---3--3--1---1---0--1--------0----0--31|--3-1----3--3-3-3--------------3--3-3--3-------------------------------3-1-------------

vengo_a robarte, un rayito de tu luz.


|--5---2---------------3-2----2--5--3----|----------3-1--0--3-------3-------------|----------------------------------------|
|
|----------------------------------------|--1---1---0-------0---3-1----------0----|------------3--1----------3--0--3--------

file:///C|/Archivos%20de%20programa/eMule/Incoming/_cancionero-guitarra-bandurria_(1)/SerenataTapatia.htm (3 de 3)01/11/2008 10:45:22 p.m.

Sesenta granaderos

SESENTA GRANADEROS

E
B7
Ante el Cristo, ante el Cristo redentor,
A
B7
E
se arrodi, se arrodillaba un arriero.
B7
Y roga, y rogaba por las almas,
A
B7
E
de los bra, de los bravos granaderos.

E
B7
Eran se, eran sesenta paisanos,
A
B7
E
los sesen, los sesenta granaderos.
E
B7
Eran va, eran valientes cuyanos,
A
B7
E
de cora, de corazones de acero.

A
B7
E
Quiero elevar mi canto como un lamento de tradicin,
A
B7
E
para los granaderos que defendieron nuestra nacin.
A
B7
E
Pido para esas almas que las bendiga nuestro seor.

E
B7
Nuestra se, nuestra Seora de Cuyo,
A
B7
E
contempl la cruzada de los Andes.
E
B7
Y bendijo al general San Martn,
A
B7
E
el ms gran, el ms grande entre los grandes.

B7

file:///C|/Archivos%20de%20programa/eMule/Incoming/_...cionero-guitarra-bandurria_(1)/SesentaGranaderos.htm (1 de 2)01/11/2008 10:45:22 p.m.

Sesenta granaderos

Cuna de, cuna de eternos laureles,


A
B7
E
con que se, con que se adorna mi patria.
E
B7
Es Mendo, es Mendoza la barriada,
A
B7
E
por ser la, por ser la tierra ms gaucha.

Quiero elevar mi canto ...

file:///C|/Archivos%20de%20programa/eMule/Incoming/_...cionero-guitarra-bandurria_(1)/SesentaGranaderos.htm (2 de 2)01/11/2008 10:45:22 p.m.

Silencio

SILENCIO

(Rafael Hernndez)

Dm
A7
Dm
Duermen en mi jardn,
Gm
las blancas azucenas
A7
Dm
los nardos y las rosas.
D7
Gm
Mi alma tan triste y pesarosa
Dm
A7
Dm 33 32 30 43 42 40
que a las flores quiere ocultar su amargo dolor.

43 42 40
C
C7
F
Yo no quiero que las flores sepan
A7
Dm
los tormentos que me da la vida.
43 42 40
C
C7
F
Si supieran lo que estoy sufriendo
A#7
Gm
A7
de pena moriran tambin.

D
Em
Silencio, que estn durmiendo
A7
D
los nardos y las azucenas.
F#
G
No quiero que sepan mis penas
D B7
Em
A7
D
porque si me ven llorando, morirn.
Gm
D
Morirn

file:///C|/Archivos%20de%20programa/eMule/Incoming/_cancionero-guitarra-bandurria_(1)/Silencio.htm01/11/2008 10:45:23 p.m.

La sirena

LA SIRENA

Am
Cuando mi barco navega
E7
sobre las olas del mar
Dm
E7
pongo atencin por si escucho
Dm
E7
Am
una sirena cantar.

Am
Dicen que muri de amores
E7
y en su cancin se escucha
Dm
E7
yo doy gustoso la vida
Dm
E7
Am
siempre que sea por amor.

Am
Corre, vuela
E7
sobre las olas del mar
Dm
E7
quien pudiera
Dm
E7
Am
a una sirena encontrar.

file:///C|/Archivos%20de%20programa/eMule/Incoming/_cancionero-guitarra-bandurria_(1)/Sirena.htm01/11/2008 10:45:23 p.m.

Si t me dices ven

SI T ME DICES VEN

(Alfredo Gil)

Am A7
Dm
Si t me dices ven, lo dejo todo,
G7
C
si t me dices ven, ser todo para ti,
F
E7
mis momentos ms ocultos tambin te los dar,
F
E7
mis secretos que son pocos sern tuyos tambin.

Dm
Si t me dices ven,
F
si t me dices ven,
E7
si t me dices ven,

G7
C
todo cambiar,
E7
Am
habr felicidad
Am
si t me dices ven.

Am
A7
Dm
No detengas el momento por las indecisiones,
G7
C
para unir alma con alma, corazn con corazn,
Am
A7
Dm
rer contigo ante cualquier dolor,
Am
B7
E7
Am
llorar contigo, llorar contigo ser mi salvacin.

Am A7
Dm
Pero s tu me dices ven, lo dejo todo,
G7
C
que no se te haga tarde, y te encuentres en la calle, perdida,
A7 Dm
E7
Am
sin rumbo y en el lodo.
B7 E7
Am
Si t me dices ven, lo dejo todo.

INTRODUCCIN: Am, A7, Dm, G7, C, F, E7, Am, E7, Am

file:///C|/Archivos%20de%20programa/eMule/Incoming/_cancionero-guitarra-bandurria_(1)/SiTuMeDicesVen.htm01/11/2008 10:45:23 p.m.

Si vas a Calatayud

SI VAS A CALATAYUD

(S. Valverde / R. Zarzoso)

A
E7
Por que era amiga de hacer favores,
A
porque fue alegre en su juventud,
Am
E7
en coplas se vio la Dolores,
Am
la flor de Calatayud.

G7
C
Y una coplilla recorri Espaa,
F
E
pregn de infamia de una mujer.
E7
Am
Pero el buen nombre de aquella maa,
Dm
F
E
yo tengo que defender.

La Dolores de la copla,
me dijo un da mi padre,
fue alegre, pero fue buena,
fue mi mujer, fue tu madre.

RECITADO

E7
A
Si vas a Calatayud,
Bbd
E7
si vas a Calatayud,
A
pregunta por la Dolores,
E7
que una copla la mat, ( y en ofrenda de mi amor )
A
de vergenza y sinsabores. ( en su tumba ponle flores )
E7
Di que te lo digo yo, ( Ve que te lo pido yo )
A
el hijo de la Dolores.

file:///C|/Archivos%20de%20programa/eMule/Incoming/_cancionero-guitarra-bandurria_(1)/SiVasACalatayud.htm (1 de 2)01/11/2008 10:45:23 p.m.

Si vas a Calatayud

A
E7
Dice la gente de mala lengua,
A
que por tu calle me ven rondar:
Am
E7
T sabes su madre quien era?
Am
Dolores la del cantar.

G7
C
Yo la quera con amor bueno,
F
E
mas la calumnia la avergonz.
E7
Am
Y no supo limpiarse el cieno,
Dm
F
E
que la maldad le arroj.

Copla que vas dando muerte


con el alma de maldigo,
fuiste dolor de mi madre,
pero no podrs conmigo

RECITADO

E7
A
Si vas a Calatayud,
Bbd
E7
si vas a Calatayud,
A
pregunta por la Dolores,
E7
y en ofrenda de mi amor
A
en su tumba ponle flores
E7
Ve que te lo pido yo
A
el hijo de la Dolores.

file:///C|/Archivos%20de%20programa/eMule/Incoming/_cancionero-guitarra-bandurria_(1)/SiVasACalatayud.htm (2 de 2)01/11/2008 10:45:23 p.m.

Sombras nada ms

SOMBRAS NADA MS

Em

(Contursi / Lomuto)

B7

Em E7
Quisiera abrir lentamente mis venas, mi
pies,
Am
D7
G
B7
para poderte demostrar que ms no puedo
despus.
Em
B7
Y sin embargo tus ojos azules, azul que
Am
D7
G
B7
E
que se han cerrado para m, sin ver que
soledad.

sangre toda verter a tus


C

Am

amar y entonces, morir


Em E7
tienen el cielo y el mar,
C
Am
estoy aqu perdido

en mi

E
C#7
F#m
Sombras nada ms, acariciando mis manos,
B7
E
sombras nada ms en el temblor de mi voz.
Em
E7
Am
Pude ser feliz y estoy en vida sufriendo
D7
G
y entre lgrimas viviendo
C
Am
el pasaje ms horrendo
F#
B7
de este drama sin final.
E
C#7
F#m
Sombras nada ms, entre tu vida y mi vida,
B7
E
sombras nada ms, entre tu amor y mi amor.

Em
B7
Em E7
Que breve fue tu presencia en mi hasto, que tibias fueron tus
manos, tu voz.
Am
D7
G
C
Am
B7
Como lucirnaga lleg, tu luz ilumin las sombras de mi rincn.
Em
B7
Em
E7
Y yo qued como un duende temblando, sin el azul de tus ojos de mar,
file:///C|/Archivos%20de%20programa/eMule/Incoming/_cancionero-guitarra-bandurria_(1)/SombrasNadaMas.htm (1 de 2)01/11/2008 10:45:24 p.m.

Sombras nada ms

Am

D7

Am

B7
E
que se han cerrado para m, sin ver que estoy aqu perdido
soledad.

en mi

file:///C|/Archivos%20de%20programa/eMule/Incoming/_cancionero-guitarra-bandurria_(1)/SombrasNadaMas.htm (2 de 2)01/11/2008 10:45:24 p.m.

Somos

SOMOS

(Mario Clavell)

D7
Gm
Dm
Despus que nos besamos con el alma y con la vida,
A7
Dm
te fuiste con la noche de aquella despedida.
D7
Gm
Dm
Y yo sent que al irte mi pecho sollozaba
E7
A7
la confidencia triste de nuestro amor as:

Dm
A7
Somos un sueo imposible que busca la noche,
Gm
A7
Dm
para olvidarse del tiempo del mundo y de todo,
Gm
somos en nuestra quimera doliente y querida
E7
Gm
A7 / Gm / A7
dos hojas que el viento junt en el otoo.

Dm
A7
Somos dos seres en uno que amando se mueren,
Gm
A7
Dm
para guardar en secreto lo mucho que quieren,
A#7 A7
Dm D7
pero que importa la viiida con esta separacin,
Gm
A7
Dm (Gm / A7 antes de la parte
Instrumental)
somos dos gotas de llanto en una cancin.

Gm
A7
Nada ms eso somos,
Dm Gm A7 Dm
nada ms.

file:///C|/Archivos%20de%20programa/eMule/Incoming/_cancionero-guitarra-bandurria_(1)/Somos.htm01/11/2008 10:45:24 p.m.

Son mejicano

SON MEJICANO

E
A
B7
E
Negrita de mi pesares, hojas de papel volando.
A
B7
E
Negrita de mis pesares, hojas de papel volando.
A
B7
E
A todos diles que s, pero no le digas cuando,
A
B7
E
as me dijiste a m, por eso vivo penando.

A
B7
E
El carretero se va, ya se va para Los Reyes,
A
B7
E
el carretero no va, porque le faltan los bueyes.
A
Seor carretero le vengo a
B7
que sus animales se le van
A
Unos en la arena, otros en
B7
seor carretero le vengo a

avisar,
a ahogar.
la mar,
E
avisar.

A
B7
E
Por ah va la rueda, djenla rodar,
A
B7
E
porque la carreta no puede llegar.

|
|
|
| BIS
|
|
|

|
| BIS
|

A
F#7
Bm
Oiga amigo su carreta no se le vaya a atascar,
E
A
avsele a los yunteros que la vengan a sacar.

E, A, B7

|
| BIS
|

|
| BIS
|

(Varias veces)

E
E7
A
Cuando me traes a mi negra que la quiero ver aqu,

file:///C|/Archivos%20de%20programa/eMule/Incoming/_cancionero-guitarra-bandurria_(1)/SonMejicano.htm (1 de 2)01/11/2008 10:45:24 p.m.

Son mejicano

B7

(Modulacin a D)
con su rebozo de seda que le traje de Tepic.

D7 G
D7
G
Era de madrugada cuando te empec a querer,
D7
G
A7
D
un beso a la media noche, y el otro al amanecer.

| BIS Y
|

|
| BIS
|

E
A
Ay, la la la, Ay la ra la ra la la,
G
A7
D
era de madrugada cuando te empec a querer.
E
A
Ay, la la la, Ay la ra la ra la la,
G
A7
D
un beso a la media noche y el otro al amanecer.

file:///C|/Archivos%20de%20programa/eMule/Incoming/_cancionero-guitarra-bandurria_(1)/SonMejicano.htm (2 de 2)01/11/2008 10:45:24 p.m.

El toro y la Luna

EL TORO Y LA LUNA

Dm
Gm
A7
La Luna se estaba peinando
Dm
en los espejos del ro.
Dm
A7
Y un toro la est mirando,
Dm
entre la jara escondido.

Gm
C
Cuando llega la alegre maana,
F Gm
y la Luna se escapa del ro,
A7 Gm
el torito se mete en el agua,
A7
embistiendo al ver que se ha ido.

D
Ese toro enamorado de la Luna,
Ebd
A7
que abandona por las noches la man.
Em
A7
Es pintado de amapolas y aceituna,
Em
A7
D / G / A7 / D
y le puso Campanero el mayoral.

D
Los romeros de los montes le besan la frente,
D7
G
las estrellas y luceros lo baan de plata,
Gm
D
B7
y torito que es bravo y de casta valiente,
Em
A7
Dm
abanicos de colores parecen sus patas.

Dm
Gm
A7
La Luna sale esta noche,
file:///C|/Archivos%20de%20programa/eMule/Incoming/_cancionero-guitarra-bandurria_(1)/ToroYLaLuna.htm (1 de 2)01/11/2008 10:45:25 p.m.

El toro y la Luna

Dm
con negra bata de cola,
Dm
A7
y el toro la est esperando,
Dm
entre la jara y la sombra.

Gm C
Y en la cara del agua del ro,
F
Gm
donde duerme la Luna lunera,
A7 Gm
el torito de casta bravo,
A7
la vigila como un centinela.

Ese toro enamorado ...

file:///C|/Archivos%20de%20programa/eMule/Incoming/_cancionero-guitarra-bandurria_(1)/ToroYLaLuna.htm (2 de 2)01/11/2008 10:45:25 p.m.

Tres veces guapa

TRES VECES GUAPA

(Laredo)

Am
E7
Am
Ests que arrebatas preciosa,
E7
Am
ests de lo ms retrechera,
G
F
E7
ests tan bonita y graciosa que luces airosa tu sal postinera,
Am
G
F
E7
Am
Dm / E / E7
ests tan soberbia y airosa, que luces mimosa tu gracia chispera.

A
E7
A
Cuando me miras morena
E7
A
Bbd
E7
de adentro del alma un grito se escapa,
Bm
E7
para decirte muy fuerte,
Bm
E7
A
D / E7
Guapa, guapa y guapa!

E7
A
Y es que tu cara agarena
E7
A
Bbd
E7
me roba la calma con gracia chulapa,
Bm
E7
y te dir hasta la muerte,
Bm
E7
A
Guapa, guapa y guapa!

Am
E7
Am
Ests que da gloria mirarte,
E7
Am
ests que se para la gente,
G
F
E7
ests como para adorarte y luego besarte ardorosamente,
Am
G
F
E7
Am
Dm / E / E7
ests como para raptarte y lejos llevarte, ests imponente.

Cuando me miras morena ...

INTRODUCCIN: Am, Am, G, F, E7, Am, Am, G, F, E7, Am

CIFRADOS
|-7-6-8-7-6-8-7-7---7-6-8-7-6-8-7-7---12-11-12-11--12-11---10-9-10-9--10-9---8-7-87----|---------------------------------------------------------------------------------------|----------------------------------------------------------------------------------------

file:///C|/Archivos%20de%20programa/eMule/Incoming/_cancionero-guitarra-bandurria_(1)/TresVecesGuapa.htm (1 de 3)01/11/2008 10:45:25 p.m.

Tres veces guapa

|-8-6-7-7----12-11-12-11--12-11---10-9-10-9--10-9---8-7-5-5-3-2-0-0--|--------------------------------------------------------------------|---------------------------------------------------------------------

Ests que_arrebatas preciosa, ests de lo ms retrechera, ests tan bonita_y airosa


|----3-----3---3-3-2------2--0-----3---3--3--3---2-----2-0--2--3---0---2-3--5--3-2-----|-0---------------------4-------0-------------------4------------------------------3---|----------------------------------------------------------------------------------------

que luces airosa tu sal postinera. Ests tan soberbia_y airosa que luces mimosa tu
|---0--2-3--2--0-------0------0-3-2--2--3---0---2-3----5--3--2-----0--2-3---2-0---0----|----------------1--3------4-----------------------------------3---------------1-------|----------------------------------------------------------------------------------------

gracia chispera.
|---2-0-------2-0----0-2-3-5-7-8--7-5-3-2-0--------7-7-7-7--|----------4--------------------------------3-1-0-----------|------------------------------------------------------------

Cuando me miras morena de_adentro del alma un grito me_esca____pa, para decirte muy
|--0---0--2--4-5---4-2-0---2--4---5--4--2--0-2----4-5---4---7-5-4-2---2-2--4-5--7-5----|---------------------------------------------------------------------------------------|----------------------------------------------------------------------------------------

fuerte guapa, guapa, y gua___pa. Y_es que tu cara_agarena me roba la calma con gracia
|--4---2--7--7---5--5--4--2-4-2-0---0-----0--2--4--5--4-2-0--2--4-5--4--2--0--2----45--|---------------------------------------------------------------------------------------|----------------------------------------------------------------------------------------

chula____pa, y te dir_hasta la muerte, guapa, guapa, y gua___pa.


|--4-7-5-4-2--2--2--4--5----7--5--4---2---7--7---5--5--4--2-4-2-0---|-------------------------------------------------------------------|--------------------------------------------------------------------

Ests que da gloria mirarte, ests que se para la gente, ests como para_adorarte
|----3----3--3---3-2-----2--0-----3----3--3--3-2-----2--0--2--3---0-2--3--5--32--------|-0--------------------4-------0------------------4------------------------------file:///C|/Archivos%20de%20programa/eMule/Incoming/_cancionero-guitarra-bandurria_(1)/TresVecesGuapa.htm (2 de 3)01/11/2008 10:45:25 p.m.

Tres veces guapa

3-----|----------------------------------------------------------------------------------------

y luego besarte ardorosamente, ests como para raptarte y lejos llevarte, ests
|-0--2--3--2-0-------0---0-3--2--2--3---0-2--3-5--3--2----0--2-3----2-0-----0-2--------|---------------1-3----4--------------------------------3---------------1--------------|----------------------------------------------------------------------------------------

imponente
|-0----2--0---0-2-3-5-7-8--7-5-3-2-0--------7-7-7-7--|----4-------------------------------3-1-0-----------|-----------------------------------------------------

file:///C|/Archivos%20de%20programa/eMule/Incoming/_cancionero-guitarra-bandurria_(1)/TresVecesGuapa.htm (3 de 3)01/11/2008 10:45:25 p.m.

T meas

T MEAS

D
T meas muy claro,
t meas muy claro,
Ebd
A7
t me has muy claro demostrado tu desprecio.

Em
T meas muy fuerte,
A7
t meas muy fuerte,
Em
A7
D
t me has muy fuerte golpeado el corazn.

D
Por eso meando,
por eso meando,
D7
G
por eso me ando por la calle emborrachando.

T meas muy claro,


D
B7
t meas muy fuerte,
Em
A7
D
t me has muy fuerte golpeado el corazn.

G
Reputa,
A7
D
reputacin me has pedido.
G
Tus tetas,
A7
D
t te ests riendo de m.

A7
Mmame,
D
mam me ha dicho cuidado.
A7
Mmame,
D
mam me ha dicho cuidado.

G
Reputa,
A7
D
reputacin me has pedido.
file:///C|/Archivos%20de%20programa/eMule/Incoming/_cancionero-guitarra-bandurria_(1)/TuMeas.htm (1 de 3)01/11/2008 10:45:26 p.m.

T meas

G
Te corres
A7
D
te corresponde mi amor.

CIFRADOS
T meas muy claro, t meas muy claro, tu meas muy claro demostrado tu desprecio, t
|--0--0----0----0-----0--0----0----0-----0--0----0----2-0--0-0---20--------------------|-----------------2------------------2--------------------------------3--2---3-0---3---|---------------------------------------------------------------------------------------|
|
|---------------------------------------------------------------------------------------|--2--2----2----2-----2--2----2----2-----2--2----2----3-2--2-2---3-2--0------0-----0---|-----------------3------------------3-----------------------------------3----2---------

meas muy fuerte, t meas muy fuerte, tu meas muy fuerte golpe_ado_el corazn.
|---------------------------------------------------0-----------0----------------|--3----3---3---0---3--3----3---3---0---3--3----3-------3--3--3----3----2-0-2----|--------------------------------------------------------------------------------|
|
|--------------------------------------------------------------------------------|--0----0---0-------0--0----0---0-------0--0----0---2---0--0--0-2--0-------------|---------------2-------------------2-----------------------------------3-2-3-----

Por eso meando, por eso meando, por eso meando por la calle_emborrachando, t meas
|--0--0-0--0-------0--0-0--0-------0--0-0--0---0--0---0--3---3---3--3--3--2---5-5------|--------------2--------------2--------------------------------------------------------|---------------------------------------------------------------------------------------|
|
|--------------------------------------------------------0---0---0--0--0------2-2------|--2--2-2--2-------2--2-2--2-------2--2-2--2---2--2---2------------------3-------------|--------------3--------------3---------------------------------------------------------

muy claro, t meas muy fuerte, t meas muy fuerte golpe_ado_el corazn.
|--5----5-2---4--4----4---4---0---0--0----0---2------0--2-4--0----2-4-5----|-------------------------------------------------3------------------------|--------------------------------------------------------------------------|
file:///C|/Archivos%20de%20programa/eMule/Incoming/_cancionero-guitarra-bandurria_(1)/TuMeas.htm (2 de 3)01/11/2008 10:45:26 p.m.

T meas

|
|--2----2-----0--0----0---0-------------------------------0---------0------|---------3-------------------2---2--2----2---3---0--2--3----2----3---2----|---------------------------------------------------------------------3-----

Reputa, reputacin me_has pedido, tus tetas, tu te_ests ri_endo de m. Mamam, mam
|--5-5-2---2-2-4-7-----5-----2-2-0---5---5-2----2---4---5---4-7--5--2--0--0------------|----------------------------------------------------------------------------4-3---00--|---------------------------------------------------------------------------------------|
|
|--2-2---------0-4-----2-----0-------2---2----------0---2---0-4-2----------------------|------3---3-3-----------------3-2---------3----3-------------------3--2---2-10--------|----------------------------------------------------------------------------------22---

me_ha dicho cuidado, mmame, mam me_ha dicho cuidado.


|-----------------------0---------------------0--4--7-5---|---2----3--2--0--0-------4-3---0-0---2----3--------------|-------------------3-------------------------------------|
|
|---------------------------------------------------------|--------0--------0-----2-1-0--------------0--------------|---3-------3--2----3-----------2-2---3-------3--2--2-3----

file:///C|/Archivos%20de%20programa/eMule/Incoming/_cancionero-guitarra-bandurria_(1)/TuMeas.htm (3 de 3)01/11/2008 10:45:26 p.m.

La Tuna lleg

LA TUNA LLEG

A
Va cayendo ya la noche en la ciudad
Bbd
E7
y se acerca el murmullo de la Tuna,
Bm
E7
pandereta va marcando ya el comps,
Bm
E7
A
y un revuelo de guitarras y bandurrias.

Las mujeres todas loquitas ya


A7
D
al sentir que bajo su balcn pasamos,
A
y celosas, temerosas, temblorosas,
F#
Bm
se les hace el culo gaseosa,
E7
A
ante aquesta donosura que gastamos.

A
E7
A
La de Ingenieros lleg,
Bbd
E7
cantando va y su alegra en la ciudad dej,
Bm
E7
y un tuno con aire vaciln,
Bm E7
A
te robar el corazn ... Mujer!

A
E7
A
Djate amar por l,
F#
Bm
y llegars a enloquecer de amor,
D
E7
A
F#7
y sentir la vida llena de colores,
Bm
E7
A
de alegra y buen humor.

file:///C|/Archivos%20de%20programa/eMule/Incoming/_cancionero-guitarra-bandurria_(1)/TunaLlego.htm01/11/2008 10:45:26 p.m.

El tunante lagunero

EL TUNANTE LAGUNERO

(Elfidio Alonso)

G7
C
Estudiante soy, tunante,
G7
C
que voy cantando en la Tuna.
A7
Dm
Engaando a las mujeres
|
G7
C
| BIS
sin casarme con ninguna. |

G7
C
La mujer que no ha tenido
G7
C
amor con un estudiante,
A7
Dm
no sabe lo que es canela,
G7
C
ni tampoco el chocolate.

G7
C
La sotana y el manteo,
G7
C
morena yo te dar,
F
C
pero en tocando a parroquia
G7
C
liberanos domine.

|
| BIS
|

|
|
|
| ESTRIBILLO
|
|
|

G7
C
El otro da en la tasca,
G7
C
se ha perdido un estudiante
A7
Dm
y ha venido a aparecer
|
G7
C
| BIS
debajo de un miriaque.
|

G7
C
La otra noche en La Carrera,
file:///C|/Archivos%20de%20programa/eMule/Incoming/_cancionero-guitarra-bandurria_(1)/TunanteLagunero.htm (1 de 3)01/11/2008 10:45:26 p.m.

El tunante lagunero

G7
C
un tuno se extravi,
A7
Dm
y ha venido a aparecer
G7
C
entre el do, re, mi, fa, sol.

|
| BIS
|

La sotana y el manteo...

G7
C
Con el hambre me comiera,
G7
C
me comiera mis sentires,
A7
Dm
la calle de La Carrera,
|
G7
C
| BIS
y todos sus adoquines.
|

G7
C
Con el hambre me comiera,
G7
C
me comiera, me comiera,
A7
Dm
los palos de ese balcn,
G7
C
y el cuerpo de mi morena.

|
| BIS
|

La sotana y el manteo...

G7
C
Un estudiante tunante
G7
C
se puso a pintar la Luna,
F
C
y del hambre que tena
G7
C
pint un plato de aceitunas.

file:///C|/Archivos%20de%20programa/eMule/Incoming/_cancionero-guitarra-bandurria_(1)/TunanteLagunero.htm (2 de 3)01/11/2008 10:45:26 p.m.

El tunante lagunero

G7
C
Un estudiante tunante
G7
C
se puso a pintar la Luna,
F
C
y del hambre que tena
G7
C
pint un plato digo yo.

file:///C|/Archivos%20de%20programa/eMule/Incoming/_cancionero-guitarra-bandurria_(1)/TunanteLagunero.htm (3 de 3)01/11/2008 10:45:26 p.m.

Tus ojos

TUS OJOS

Am
A7
Dm
Por qu son tus ojos as,
G7
C
con ese distinto color,
F
E7
pupilas que son para m,
Am
como frases de amor.

Am
A7
Dm
Piropos que el cielo te ech,
G7
C
preguntas que no s explicar,
F
E7
maana radiante de sol,
Am
o negra oscuridad.

Am
A7
Dm
Yo te quiero, yo te quiero,
G7
C
tu recuerdo me hace llorar,
E7
Am
que otra tuna en tu ventana,
F
E7
Am
al marcharme yo, esta cancin cantar.

Am
A7
Dm
Por qu tanto brillo al rer,
G7
C
por qu tanta luz al llorar,
F
E7
por qu son tus ojos as,
Am
como el verde del mar.

Yo te quiero ...
file:///C|/Archivos%20de%20programa/eMule/Incoming/_cancionero-guitarra-bandurria_(1)/TusOjos.htm (1 de 2)01/11/2008 10:45:27 p.m.

Tus ojos

Am
Dm
Esta voz cansada se ha escuchado,
Am
me has sentido, me has mirado,
E7
y ahora vuelvo a comprender lo bello de la vida.
Am
Dm
Mi guitarra vibra de alegra,
Am
ahora se que fuiste ma,
E7
que hoy lo eres, que sers maana y siempre.

Yo te quiero ...

file:///C|/Archivos%20de%20programa/eMule/Incoming/_cancionero-guitarra-bandurria_(1)/TusOjos.htm (2 de 2)01/11/2008 10:45:27 p.m.

Una aventura ms

UNA AVENTURA MAS

(Kinleinder / Stevens)

C
Am / Dm
Yo se que soy
G7
C
Am / Dm
una aventura ms para ti,
G7
C Am / Dm
que despus de esta noche
G7
C / Am / Dm / G7
te olvidars de m.

C
Am / Dm
Yo se que soy
G
C
Am / Dm
una ilusin fugaz para ti,
G7
C Am / Dm
un capricho del alma
G7
C / C7M / Gm / C7
que hoy se acerca a m.

F
A7
Aunque me beses con loca pasin,
Dm
y yo te bese feliz,
G7
C
con la aurora que llega
Am
D7
Dm7 / G7
muere mi corazn por ti.

file:///C|/Archivos%20de%20programa/eMule/Incoming/_cancionero-guitarra-bandurria_(1)/UnaAventuraMas.htm01/11/2008 10:45:27 p.m.

El vagabundo

EL VAGABUNDO

(Vctor Simn / Alfredo Gil)

Dm
D7
Gm
Que importa saber quien soy,
Dm
A7
Dm
ni de donde vengo ni por donde voy.
D7
Gm
C
Lo que yo quiero son tus lindos ojos, morena,
F
tan llenos de amor.

Gm
A7
El Sol brilla en lo infinito,
Gm
A7
y el mundo es tan pequeito.
Gm
Dm
Que importa saber quien soy,
A7
Dm
ni de donde vengo ni por donde voy,
Gm
C
F
lo que yo quiero es que me des tu amor,
Bb7
Gm
A7
Dm
que me da la vida que me da calor.

Gm
A7
T me desprecias por ser vagabundo,
Dm
A7
Dm
y mi destino es vivir as.
C
Si vagabundo es el propio mundo,
Bb7
A7
que va girando en un cielo azul.

Gm
Dm
Que importa saber quien soy,
A7
Dm D7
ni de donde vengo ni por donde voy.
Gm
Dm
Lo que yo quiero es que me des tu amor,
A7
Dm / Re 7
que me da la vida, que me da calor.
Gm
C
F
Que importa saber quien soy,
Bb7
Gm
A7
Dm
ni de donde vengo ni por donde voy.

INTRODUCCIN: Gm, C7, F, Dm, Gm, A7, Dm, D7, Gm, A7, Dm, Bb7, Bbd, A7, Dm

CIFRADOS
|-0-1-3-5-5-1-1------5-5-3-3-0-0------3-3-1-1----------1-1-0--------0-1-1-----------1file:///C|/Archivos%20de%20programa/eMule/Incoming/_cancionero-guitarra-bandurria_(1)/Vagabundo.htm (1 de 3)01/11/2008 10:45:27 p.m.

El vagabundo

1-|---------------3-3--------------1-1----------3-3-0-0-----------1-3--------3-3-00------|---------------------------------------------------------------------------------------|
|
|-----0-1-1----------1-1-0-0----------00-----------------------------------------------|-1-3-------3-3-0-0----------1-1----------3-3-0-0-----3-3-1------0-1-3-3-0-0------33---|--------------------------------3-3--------------2-2----------3-------------22---------

|-0-0------------0-0----------------------|-----1-1------------3-3-0-0-------3-3-1--|---------3-3-----------------2-2---------|
|
|----------------------------------------|-1-1------------1-1-0-0----------0-0----|-----3-3----------------2-2----------3--|---------3-3----------------3-3----------

Que_importa saber quin soy, ni de dnde vengo ni por donde voy. Lo que yo quiero son
|----0---5--0--0----------------1--1--1--1--0--0--0--0------------------------------0--|----------------1---------3-----------------------------3--3--1----1---1-0------------|---------------------3--------------------------------------------------------3-3------

tus lindos ojos, morena, tan llenos de_amor. El sol brilla_en lo_infinito y_el
mundo_es
|--0---3--3--1-1----0-------------------1--0---0---5----5---5-----5---7-4-0--0----5--5-|---------------------3-1--0-----------------------------------------------------------|--------------------------------31-----------------------------------------------------

tan pequeito, que_importa saber quien soy, ni de donde vengo ni por donde voy, lo que
|--5---5--7-4-0-----0----------------0-------------------------------------1--0----0--0|-----------------------3--0--1-3---------1-------0--1--3--0--0--------0---------------|----------------------------------------------3-----------------2-3--------------------

yo quiero_es que me des tu_amor que me da la vida que me da calor.

file:///C|/Archivos%20de%20programa/eMule/Incoming/_cancionero-guitarra-bandurria_(1)/Vagabundo.htm (2 de 3)01/11/2008 10:45:27 p.m.

El vagabundo

|--0------------------------------------------------------------------|------3---3-----0--1--3----0--1-------0--1-----0-0---------0---------|-----------------------------------3--------3--------2--3-----2-3-----

T me desprecias por ser vagabundo, y mi destino_es vivir as, si vagabundo_es el


|--0--0--0---1-1----1-----------------1--1--1--0--0----0----------0--0-0-5---5--5------|-----------------------3---3-3-0--0---------------------3--31-------------------------|----------------------------------------------------------------------------------------

propio mundo que va girando_en un cielo_azul. Que_importa saber quien soy, ni de donde
|---7-5---3--3---3--5--3-1---1---5---3---1--0------0---------------0-------------------|------------------------------------------------------3--0--1-3---------1-------0--1-3|----------------------------------------------------------------------------3----------

vengo ni por donde voy. Lo que yo quiero_es que me des tu_amor que me da la vida que
|------------------1--0----0---0--0-----------------------0----------------------------|--0--0---------0---------------------3---3-----0--1--3-------1-------0--1-----00------|--------2--3------------------------------------------------------3--------3-------2---

me da calor. Que_importa saber quien soy, ni de donde vengo ni por donde voy.
|-----------------0----------------0---------0--0--0--0--0--0--0--0---0--0--5----|-----0---------------3--0--1-3---------1----------------------------------------|--3-----2-3----------------------------------------------------------------------

file:///C|/Archivos%20de%20programa/eMule/Incoming/_cancionero-guitarra-bandurria_(1)/Vagabundo.htm (3 de 3)01/11/2008 10:45:27 p.m.

Vagabundo por Santa Cruz

VAGABUNDO POR SANTA CRUZ

(Jos Belmonte Trujillo, Percha,

Econmicas de Sevilla)

D
A7
D
Callecita de piedra y silencio
Ebd
A7
que voy recorriendo a la luz de un farol,
Em
A7
mi memoria recuerda las noches
Em
A7
D
en que cada piedra se haca cancin.

D
A7
D
Voy sin rumbo por los pasadizos
D7
G
que miles de amores sintieron pasar,
D
y temblando resurgen los sones
B7
Em
A7
D / D7
de muchas canciones que pude cantar.
G
D
Renaciendo con nuevos fulgores
B7
Em
A7
D
viejos trovadores salen a rondar.

G
A7
D
Hoy vuelvo a ser vagabundo por tus lindas calles,
B7
Em
un don Juan, un juglar, un poeta
A7
D
que con su guitarra te haca soar.

G
A7
D
Hoy, Santa Cruz, me enamoro otra vez de la Luna,
B7
Em
y vistiendo el jubn de la tuna
A7
D
miro las estrellas y empiezo a volar.

file:///C|/Archivos%20de%20programa/eMule/Incoming/...ro-guitarra-bandurria_(1)/VagabundoPorSantaCruz.htm (1 de 2)01/11/2008 10:45:27 p.m.

Vagabundo por Santa Cruz

Hoy vuelvo a ser ...

file:///C|/Archivos%20de%20programa/eMule/Incoming/...ro-guitarra-bandurria_(1)/VagabundoPorSantaCruz.htm (2 de 2)01/11/2008 10:45:27 p.m.

El vampiro

EL VAMPIRO

(P. Lormiga)

Dm
A7
Dm
Si esta noche faciendo un fro que pela,
A7
me contemplas vestido de vampiro,
Gm
A7
no te creas que cobro alguna pela,
Gm
A7
Dm
lo que pasa es que por tu amor suspiro.

Dm
A7
Dm
Si esta noche estudiando me encontraba,
A7
cual gallina empollaba la leccin,
Gm
A7
pero pensaba que t no te acordabas
Gm
A7
Dm
de aquel tuno que un da te rond.

D
A7
D
Vesto de cuervo y cogiendo el instrumento,
D7
Gm
dejando libros, apuntes y dems,
Dm
hemos venido a darte tormento,
A7
Dm D7
a ver un momento lo buena que ests.
Gm
Dm
Pues no te creas que somos caraduras,
A7
D
que somos de la Tuna, no faltara ms.

D
Dame tu corazn, mira con qu pasin,
Ebd
A7
te estoy cantando, cantando, cantando.
Em
A7
Mira con qu fervor, mira con qu calor
Em
A7
D
te estoy tocando, tocando, tocando.

file:///C|/Archivos%20de%20programa/eMule/Incoming/_cancionero-guitarra-bandurria_(1)/Vampiro.htm (1 de 2)01/11/2008 10:45:27 p.m.

El vampiro

D
Con toda la ilusin brenos el balcn,
D7
G
quiero besarte como nadie hizo jams.
Gm
D
Mira que Tuna solamente hay una,
B7
Em
A7
D D7
y como esta Tuna no hay ninguna ms.
Gm
D
mira que Tuna solamente hay una
B7
Em
A7
D
y despus de la una nos vamos a rondar.

file:///C|/Archivos%20de%20programa/eMule/Incoming/_cancionero-guitarra-bandurria_(1)/Vampiro.htm (2 de 2)01/11/2008 10:45:27 p.m.

Vereda tropical

VEREDA TROPICAL

(Gonzalo Curiel)

C
A7
Dm
Voy por la vereda tropical
Fm G7
la noche plena de quietud,
C
con su perfume de humedad.

C
A7
Dm
En la brisa que viene del mar
Fm G7
se oye el rumor de una cancin,
C
que habla de amor y de piedad.

Dm
Con ella fui noche
Dm
para besar su boca
D7
Y me jur quererme

Em F
G
C
tras noche hasta el mar,
Em
F
G A7
fresca de amor.
ms y ms

y no olvidar jams
G7
aquellas noches junto al mar.

C
A7
Dm
Hoy slo me queda recordar,
Fm G7
mis ojos mueren de llorar,
C
mi alma muere de esperar.

F G7 C
Por qu se fue?
G7
T la dejaste ir
C
vereda tropical.
file:///C|/Archivos%20de%20programa/eMule/Incoming/_cancionero-guitarra-bandurria_(1)/VeredaTropical.htm (1 de 2)01/11/2008 10:45:28 p.m.

Vereda tropical

F
G7 C
Hazla volver (hazla volver), a m,
G7
C
quiero besar su boca otra vez, junto al mar.

G7
C
Vereda tropical,
G7
F
Fm
C
vereda tropical, tropical, tropical.

file:///C|/Archivos%20de%20programa/eMule/Incoming/_cancionero-guitarra-bandurria_(1)/VeredaTropical.htm (2 de 2)01/11/2008 10:45:28 p.m.

La viajera

LA VIAJERA

(Garca Morcillo)

E7
Porque ha perdido una perla,
Am Dm
llora una concha en el mar,
Am
F
porque el sol no se ha asomado,
Dm
E7 Am
esta triste el pavo real.

E7
Porque pasaron los aos,
Am / A7 / Dm
y la barca no volvi,
Am
est llorando en el puerto
Ebd
E7
A
la novia del pescador.

E7
Por todo lo que ms quieras,
A
dime que s.
E7
Por tu madrecita buena,
A
dime que s.

E7
Que me vas a querer tanto
A / A7 / D
dime que s.
Ebd
A
que me vas a querer tanto
B7
E7
Am
como yo te quiero a ti.

E7
Maana cuando te alejes,
file:///C|/Archivos%20de%20programa/eMule/Incoming/_cancionero-guitarra-bandurria_(1)/Viajera.htm (1 de 2)01/11/2008 10:45:28 p.m.

La viajera

Am Dm
viajera de mi ilusin,
Am
F
que voy a hacer contigo,
Dm
E7 Am
te llevas mi corazn.

E7
Si una concha est llorando,
Am / A7 / Dm
porque una perla perdi,
Am
que harn mis ojos maana,
Ebd E7
A
cuando me digas adis.

file:///C|/Archivos%20de%20programa/eMule/Incoming/_cancionero-guitarra-bandurria_(1)/Viajera.htm (2 de 2)01/11/2008 10:45:28 p.m.

La viajerita

LA VIAJERITA

(Atahualpa Yupanqui)

Am
E7 Am
Desde los cerros
Am
E7
Am
baja esta zmbita,
F
C
por eso la llamo yo
E7
Am
la viajerita, palomitay.

Am
E7 Am
Sendas de arena,
Am
E7 Am
arcos floridos,
F
C
y un corazn que pena
E7
Am
por un olvido, palomitay.

G7
C
Ay, viajerita!
G7
C
el alba asoma,
F
C
trayendo de los cerros,
E7
Am
frescor y aroma, palomitay.

Am
E7 Am
Yo soy de arriba,
Am
E7 Am
soy de Gochula,
F
C
ranchitos, montes, ros,
E7
Am
soles y lunas, palomitay.

Am
E7 Am
Hasta el Pachivi,

file:///C|/Archivos%20de%20programa/eMule/Incoming/_cancionero-guitarra-bandurria_(1)/Viajerita.htm (1 de 2)01/11/2008 10:45:28 p.m.

La viajerita

Am
E7 Am
voy los domingos,
F
C
y por la noche al cerro,
E7
Am
vuelvo solito, palomitay.

Ay, viajerita!...

file:///C|/Archivos%20de%20programa/eMule/Incoming/_cancionero-guitarra-bandurria_(1)/Viajerita.htm (2 de 2)01/11/2008 10:45:28 p.m.

Violetas imperiales

VIOLETAS IMPERIALES

(J.M. de Arozamena / Francis Lpez)

C
Em
F
C
Violetas para ti, traigo yo una cancin,
Em
F
C
la misma que aprend en tu antiguo pregn.
E7
Am
Te acuerdas en Granada, al pie del Albaicn,
D7
F
G7
juntos en el jardn que nos dio su cancin.

C Em Am
Bbd
G7
Era un cielo de primavera,
Dm Dm7 G7
C Em Am G7
cuando me dijo la violetera:
C
Em
Am7
Bbd
G7
Cmpreme usted mis violetas que son las primeras,
C Bbd G7
van a traerle la suerte, su suerte es mi flor.

C Em
Am
Bbd
G7
Piensa que en esta corte francesa,
Dm Dm7 G7
A7
eeres ms que gitana princesa,
Dm F
Fm A#7
Violeta de Espaaa,
C
A#7 A7
t, en tierra extraa,
C
F G7 C
vives para el recuerdo de aquel aamor.

C
Em
F
C
Yo tuve un ruiseor que lleg a suspirar.
Em
F
C
Para qu quiero amor si nadie me va a amar?
E7
Am
Ramito de violetas que luzco en el ojal,
D7
F
G7
me siento emperador de violeta imperial.

file:///C|/Archivos%20de%20programa/eMule/Incoming/_cancionero-guitarra-bandurria_(1)/VioletasImperiales.htm (1 de 2)01/11/2008 10:45:28 p.m.

Violetas imperiales

C Em Am
Bbd
G7
Sabes que ya no habr primavera,
Dm Dm7 G7
C Em Am G7
si t no estas aqu violetera.
C
Em
Am7
Bbd
G7
La primavera ha venido y yo se porque ha sido,
C Bbd G7
entre las flores que ofreces es como una flor.

C Em Am
Bbd
G7
Vuelve a tu rincn de la Alhambra,
Dm Dm7 G7
A7
donde copia la luna tu zambra.
Dm F
Fm A#7
Violeta de Espaaa,
C
A#7 A7
t, en tierra extraa,
C
F
G7 C
vives dando sentido a mi amor, aamor.

INTRODUCCIN:

C, Em, Am, Bbd, F, G7, C

file:///C|/Archivos%20de%20programa/eMule/Incoming/_cancionero-guitarra-bandurria_(1)/VioletasImperiales.htm (2 de 2)01/11/2008 10:45:28 p.m.

Yo no me caso, compadre

YO NO ME CASO, COMPADRE

(Sebastin Curiel)

D
D7
G
No, no, no, no, seor, yo no me casar,
A7
Em
A7
D
as le digo al cura, y as le digo a usted.
D7
G
No, no, no, no, seor, yo no me casar,
A7
D
estoy enamorado, pero me aguantar.

D
Yo no me caso, compadre querido,
G
A7
porque la vida es un puro vaciln (vaciln, vaciln, vaciln,
vaciln),
Em
A7
yo no me caso, compadre querido,
Em
A7
D
aunque me ponga en el pecho un pistoln (pistoln, pistoln,
pistoln, pistoln),
yo no me caso compadre querido,
D7
G
porque la vida es un puro vaciln,

D
No, no, no, no, seor, yo no me casar,
A7
Em
A7
D
as le digo al cura, y as le digo a usted.
D7
G
No, no, no, no, seor, yo no me casar,
A7
D
estoy enamorado, pero me aguantar.

file:///C|/Archivos%20de%20programa/eMule/Incoming/_cancionero-guitarra-bandurria_(1)/YoNoMeCasoCompadre.htm01/11/2008 10:45:29 p.m.

Yo te dir

YO TE DIR

Yo
te
Me
me

(E. Llovet / J. Halpern)

Dm A7 Dm
Bbd
Dm D7
te diir porqu mi cancin,
Gm
Dm
llama sin cesar.
Gm
Dm
falta tu risa, me faltan tus besos,
A7
Dm
falta tu despertar.

Gm
Mi sangre latiendo,
Dm
mi vida pidiendo
A7
D
que t no te alejes ms.

D
Cada vez que el viento pasa
Ebd
A7
se lleva una flor.
Em
A7
Pienso que nunca ms
D
volvers mi amor.

Ebd
No me abandones nunca
A7
al anochecer,
Em
A7
que la luna sale tarde
D
y me puedo perder.

Dm A7 Dm
Bbd
Dm D7
Y as sabrs porqu en mi cancin
Gm
Dm
te llamo sin cesar.
file:///C|/Archivos%20de%20programa/eMule/Incoming/_cancionero-guitarra-bandurria_(1)/YoTeDire.htm (1 de 2)01/11/2008 10:45:29 p.m.

Yo te dir

Gm
Dm
Me faltan tus besos, me falta tu risa,
A7
D7
me falta tu despertar.

Gm
Mi sangre latiendo,
Dm
mi vida pidiendo
A7
D
que t no te alejes ms.

file:///C|/Archivos%20de%20programa/eMule/Incoming/_cancionero-guitarra-bandurria_(1)/YoTeDire.htm (2 de 2)01/11/2008 10:45:29 p.m.

Yo vendo unos ojos negros

YO VENDO UNOS OJOS NEGROS

D
Yo vendo unos ojos negros,
Ebd
A7
quin me los quiere comprar?,
Em
E7
los vendo por hechiceros,
Em
A7
D
porque me han pagado mal.

D
Ojos negros traicioneros,
Ebd
A7
por qu mi miris as?
Em
E7
tan alegres para otros,
Em
A7
D
y tan tristes para mi.

D
A7
Ms te quisiera,
G
A7 G D
ms te amo yo,
Ebd
A7
que todas las noches las paso,
Em
A7
D
suspirando por tu amor.

D
Cada vez que tengo penas,
Ebd
A7
me voy a la orilla del mar,
Em
E7
a preguntarle a las olas,
Em
A7
D
si han visto a mi amor pasar.

D
Los ojos de mi morena,
file:///C|/Archivos%20de%20programa/eMule/Incoming/...ro-guitarra-bandurria_(1)/YoVendoUnosOjosNegros.htm (1 de 2)01/11/2008 10:45:29 p.m.

Yo vendo unos ojos negros

Ebd
A7
tan negros como el carbn,
Em
E7
me tienen como en cadena,
Em
A7
D
atado mi corazn.

file:///C|/Archivos%20de%20programa/eMule/Incoming/...ro-guitarra-bandurria_(1)/YoVendoUnosOjosNegros.htm (2 de 2)01/11/2008 10:45:29 p.m.

Y viva Espaa

Y VIVA ESPAA

(L. Caerts / L. Rozenstraten / M. Degmez)

Dm
Entre toros, fandanguillos y alegras,
C
A#
A7
naci mi Espaa, la tierra del amor,
Dm
nunca Dios pudo igualar tanta belleza
C
A#
A7
y es imposible que pueda haber dos.

A#
A7
Espaa ha sido siempre y lo ser
A#
A7
eterno Paraso sin igual.

D
A7
D
Por eso se oye este refrn,
Ebd A7
que viva Espaa,
Em
A7
y siempre la recordarn,
Am A7
D / G / A7
que viiva Espaa.

D
A7
D
La gente canta con ardor,
Ebd A7
que viva Espaa,
Em
A7
la vida tiene otro color,
Em
A7
Dm / C / A# / A7
Espaa es la mejor.

Dm
Que bonito es el mar Mediterrneo,
C
A#
A7
la Costa Brava y la Costa del Sol.
Dm
El fandango y la sardana me emocionan,
C
A#
A7
porque en sus notas hay vida y hay calor.

Espaa ha sido siempre ...

INTRODUCCIN: A#, A7, Dm, C, A#, A7

CIFRADOS

file:///C|/Archivos%20de%20programa/eMule/Incoming/_cancionero-guitarra-bandurria_(1)/YVivaEspana.htm (1 de 2)01/11/2008 10:45:29 p.m.

Y viva Espaa

|-0---0-1-0-----------------------0-----------------------0--|---3-------3-1-0-------0---0-1-3---1-----0-1-3--0-1---0--0--|-----------------3-2-3-----------------3------------3----2--|---------------------------------------------------------3---

Entre toros fandanguillos y_alegr_as naci mi_Espaa, la tierra del amor. Nunca Dios
|--------0-0---0--0---1--0------0--1-0--0----------------------------------------------|-----1----------------------4-------------3----1---3-0---3--1---0-----1-0---------1---|-3-----------------------------------------------------------------3---------3-3-------

pudo igualar tanta belleza y_es imposible que pueda haber dos. Espaa_ha sido
siempre_y
|--0-0-0-0--1---0-----0--1-0--0------0-3------0--1--0----1---0---0--1--1----1-1--1----0|------------------4--------------4-------3-----------3--------------------------------|----------------------------------------------------------------------------------------

lo ser eterno para_iso sin igual.


|--------------------------------0----|--3--1-0-0-1--0----0-1-0-----0-------|-----------------4--------4-----------

Por eso se_oye_este refrn, que viva Espaa, y siempre la recordarn, que viva Espaa.
|-----0-0---2---4---2--0--------0--5-2-4--0----0--2----2--4--5-4--0-------0--4-5-4--20-|--2----------------------2-----------------3----------------------3-------------------|----------------------------------------------------------------------------------------

La gente canta con ardor que viva Espaa, la vida tiene_otro color, Espaa es la
mejor.
|-----0--0--2--4--2--0-------0--5-2-4--0--------2-2--4---5---4--0-----0-0--------------|--2--------------------2----------------3---3--------------------3----------3---1-0---|------------------------------------------------------------------------------------3--

|--------------------0--|---0-1-3-0-1---0----0--|-3-----------3------2--|-----------------3--3---

file:///C|/Archivos%20de%20programa/eMule/Incoming/_cancionero-guitarra-bandurria_(1)/YVivaEspana.htm (2 de 2)01/11/2008 10:45:29 p.m.

Zamba de mi esperanza

ZAMBA DE MI ESPERANZA

(Lus Morales)

E
Zamba de mi esperanza,
B7
amanecida como un querer,
A
E
sueo, sueo del alma,
B7
E E7
que a veces muere sin florecer.

|
| BIS
|

E
Zamba a ti te canto,
B7
porque tu canto derrama amor,
A
E
caricia de tu pauelo,
B7
E E7
que va envolviendo mi corazn.

|
| BIS
|

E
B7
Estrella t que miraste,
E
t que escuchaste mi padecer,
estrella deja que cante,
B7
E E7
deja que quiera como yo se.

|
| BIS
|

E
El tiempo que va pasando,
B7
como la vida, no vuelve ms,
A
E
el tiempo me va matando,
|
B7
E E7
| BIS
y tu cario ser, ser.
|

E
file:///C|/Archivos%20de%20programa/eMule/Incoming/...onero-guitarra-bandurria_(1)/ZambaDeMiEsperanza.htm (1 de 2)01/11/2008 10:45:29 p.m.

Zamba de mi esperanza

Hundido en el horizonte,
B7
soy polvareda que al viento va,
A
E
zamba ya no me dejes,
B7
E E7
yo sin tu canto no vivo ms.

|
| BIS
|

file:///C|/Archivos%20de%20programa/eMule/Incoming/...onero-guitarra-bandurria_(1)/ZambaDeMiEsperanza.htm (2 de 2)01/11/2008 10:45:29 p.m.