Está en la página 1de 5

ACORDES USADOS

Sol (320033)
Re/Fa# (20023x)
Mim (022000)
Si7m (x24232)
Do* (x32010)
Do** (x32013)
Re (xx0232)
Resus4 (xx0233)
Intro
e|--------------------|
B|--------------------|
G|--------0-----------|
D|--0h-2-----0--------|
A|--------------0-----|
E|-----------------3--|
ARPEGIOS
SRE/FA#)
e|------------3-----------|
B|---------------3--------|
G|------0-----------0-----|
D|---------0-----------0--|
A|------------------------|
E|--3---------------------|

Re/fa#(*)
e|------------0-----------|
B|---------------3--------|
G|------2-----------2-----|
D|---------0-----------0--|
A|------------------------|
E|--2---------------------|

RRE/FA##(**)
e|-------------------|
B|------------3/5/3--|
G|------2-----2/4/2--|
D|---------0---------|
A|-------------------|
E|--2----------------|

Re/fa#(***)
e|------------3/10/3--|
B|------2-------------|
G|---------0----------|
D|--------------------|
A|--2-----------------|
E|--------------------|

MIm
e|---------------------|
B|------------0--------|
G|------2--------0-----|
D|---------2--------2--|
A|--0------------------|
E|---------------------|

SIm7
e|---------------2-----------|
B|------------------3--------|
G|------2-----2--------2-----|
D|---------4--------------4--|
A|--2------------------------|
E|---------------------------|

SOL
e|---------------------|
B|------------1--------|
G|---------------0-----|
D|------2-----------2--|
A|--3------3-----------|
E|---------------------|

Sol(**)
e|---------------3-----------|
B|------------------3--------|
G|------0-----0--------0-----|
D|---------0--------------0--|
A|---------------------------|
E|--3------------------------|

RERE*)
REsus4
Re(**)
e|------------2----|-------3----|------2-----------|
B|------3--------3-|----3-----3-|---3-----3--------|
G|---------2-------|-2----------|2-----------2-----|
D|--0--------------|------------|---------------0--|

A|-----------------|------------|------------------|
E|-----------------|------------|------------------|
Riff 1
e|-----------|
B|-----------|
G|-----------|
D|-----------|
A|--0--2--3--|
E|-----------|

Riff 2
e|--3-----------|
B|-----3--------|
G|--------2b-0--|
D|--------------|
A|--------------|
E|--------------|

Sol(*)Re/Fa#(*)
Decir adis
MIm
SIm7
Fue difcil para mi
DSRERE
Sol(**)
Re(*) REsus4 Re(**)
porque te quise desde que te conoc
Sol(*)Re/Fa#(**)
Estoy aqu
MIm
SIm7
pensando solo en ti
DSRERE
Sol(**)
Re(*) REsus4 Re(**)
y tus recuerdos lo son todo para mi
(Riff 1) DO**
SOL
De qu sirve querer si despus vas a fallar
DO**
RE
(Riff 2)
no quise terminar pero lo tengo que aceptar
SRE/FA#
Re/fa#(*)
Tu ausencia ya
MIm
SIm7
puso en llanto mi corazn
DSRERE
Sol(**) Re(*) REsus4 Re(**)
con el recuerdo que tuvimos tu y yo
SRE/FA#
Re/Fa#(**)
Pasaran los das
MIm
SIm7
DO
y tu voz quedara en cada rincn
DSRERE
Sol(**)
Re(*) REsus4 Re(**)
y esos susurros cuando hacamos el amor
(Riff 1)Do**
SOL
Difcil de pensar que ya nunca volvers
DO**
RE
tus alas volaran y en otros cielos sufrirn

CORO:
SOL
RE
MIm
Y la verdad es que me siento solo
MIm
DO*
SOL
pues nunca te podre olvidar
SOL
RE
MIm
Y la verdad es que me siento libre
MIm
DO*
SOL
aunque las noches sean de soledad
SOL
RE
MIm
Y la verdad es que te llevo adentro
MIm
DO*
SOL
pues ocupaste tu lugar
SOL
RE
MIm
Y por tu bien espero que no vuelvas
MIm
DO
pues la vas a pasar muy mal

Solo:
e|----------------------------------------------------|
B|-----------------------3----------------------------|
G|-----2--4--5--4--2--------5--4--2--4b----4b----4~~--|
D|--5-----------------5-------------------------------|
A|----------------------------------------------------|
E|----------------------------------------------------|
e|--0--------------2----------|---------------------------------------|
B|--------3-----3-----3-------|--5--8---10b---------5--8--5--8--8--5--|
G|-----------2-----------2----|---------------------------------------|
D|----------------------------|---------------------------------------|
A|----------------------------|---------------------------------------|
E|----------------------------|---------------------------------------|
e|-----------------------------------------------------------------|
B|----------3-------------5--5-------------7--7--------------8--8--|
G|-----------------------------------------------------------------|
D|--4/5-----------6/7--------------8/9-----------------------------|
A|--------------------------------------------------9/10-----------|
E|-----------------------------------------------------------------|
e|----------------|-----10b--7-----------10b--7-------|
B|--10b---10b10b--|--8----------10b---8----------10b--|
G|----------------|-----------------------------------|
D|----------------|-----------------------------------|
A|----------------|-----------------------------------|
E|----------------|-----------------------------------|

e|-----------------|--10--|--7--10--7--------|-----------------------|
B|--8-----8---10b--|------|-----------10--7--|-------------8-10-12b--|
G|-----9-----------|------|------------------|--4b~~--7~~------------|
D|-----------------|------|------------------|-----------------------|
A|-----------------|------|------------------|-----------------------|
E|-----------------|------|------------------|-----------------------|

SRE/FA#
Re/Fa#(***)
Donde estars
MIm
SIm7
no me llega a interesar
DSRERE
Sol(**)
Re(*) REsus4 Re(**)
pues tu bien sabes me la tienes que pagar
SRE/FA# Re/Fa#(**)
Y lloraras
MIm
SIm7
es tu conciencia envenenada
DSRERE
Sol(**)
Re(*) REsus4 Re(**)
est acabando lentamente con tu alma
DO**
SOL
Pero la verdad no te deseo ningn mal
DO**
RE
pues algn cabrn ya te las har pagar ohhhh!
CORO:
SOL
RE
MIm
Y la verdad es que me siento solo
MIm
DO*
SOL
pues nunca te podre olvidar
SOL
RE
MIm
Y la verdad es que me siento libre
MIm
DO*
SOL
aunque las noches sean de soledad
SOL
RE
MIm
Y la verdad es que te llevo adentro
MIm
DO*
SOL
pues ocupaste tu lugar
SOL
RE
MIm
Y por tu bien espero que no vuelvas
MIm
DO
RE
SOL
Pues habr otra ocupando tu lugar

Pues habr
e|-----------3----------|------------------------|
B|--------------3-------|------------0-----------|
G|-----0-----------0----|---------------0--------|
D|--------0-----------0-|------2-----------2-----|
A|----------------------|---------2-----------2--|
E|--3-------------------|--0---------------------|
Otra
ocupando
tu lugar
e|-----------0-----------|-----------2-----------|--3--|
B|--------------1--------|-----3--------3--------|--3--|
G|-----0-----------0-----|--------2--------2-----|--0--|
D|--------2-----------2--|--0-----------------0--|--0--|
A|--3--------------------|-----------------------|--2--|
E|-----------------------|-----------------------|--3--|