Está en la página 1de 2

TEMA PARA JOVENES ENAMORADOS LOS BELKINGS

1ra.
2da.
3ra.
4ta.

Tiempo: 0:00
e|-11-10-8-10-8.------------11-10-8-10-8.-------------------------|
B|---------------8-6-46-8.---------------8-6-4-4/6-4/6--4/6..----|
G|----------------------------------------------------------------|
D|----------------------------------------------------------------|

3ra.
4ta.
5ta.
6ta.

Tiempo: 0:15
G|-------------------------3p0.-----3.---3-3h5-3------------------|
D|-------3-5-3-----1-1.-3-5-----3-5----5---------5----------------|
A|---3-6.-----6.-3---------------------------------6-6/8-6/8-6/8.-|
E|-6--------------------------------------------------------------|

Tiempo: 0:30
1ra.e|-------10-10h11.-10-11-10----------------------------------------->
2da.B|-11-13--------------------13.11-13-11.------------------------11.>
3ra.G|---------------------------------------12-8-8h10-8.-8-10-10/12---->
4ta.D|------------------------------------------------------------------>
--------------------------------------------------------6--------6.->
------------------------------------6-8-6-4.---4-4.-6-8---8.-6-8---->
-12-8-8h10-8.------------8-8.---5-8.---------5---------------------->
--------------10-8-8h10.------8------------------------------------->
Tiempo: 1:01
---6-6h8-6---------------------|-------10-10h11.-10-11-10-------------->
-8---------8-------------------|-11-13--------------------13.-11-13-11.>
-------------8-8/10-8/10-8/10.-|--------------------------------------->
-------------------------------|--------------------------------------->
Tiempo: 1:16
-----------------------------------------------------------|----------->
--------------------------11.------------------------------|------11-9.>
-12-8-8h10-8.- 8-10-10/12-----12-8-8h10-8.------------8-8.-|----------->
-------------------------------------------10-8-8h10.------|-8.-8------>
Tiempo: 1:31
--------------------10-------10---11..-|-11-10-8-10-8.---------------11.>
------11-8.---11-11----13.-------------|---------------8-6-4-6-6/8-8---->
---------------------------------------|-------------------------------->
-8.-8-------8--------------8----8------|-------------------------------->
---------------11.-11.--10.-------->>
-8-6-4-6-6/8-8--------------11-11.->>
----------------------------------->>
----------------------------------->>
3ra.
4ta.
5ta.
6ta.

Tiempo: 1:46 (Con efecto de guitarra elctrica)


G|-------------------------3p0.-----3.---3-3h5-3------------------|
D|-------3-5-3-----1-1.-3-5-----3-5----5---------5----------------|
A|---3-6.-----6.-3---------------------------------6-6/8-6/8-6/8.-|
E|-6--------------------------------------------------------------|

Tiempo: 2:02
1ra.e|-------10-10h11.-10-11-10----------------------------------------->
2da.B|-11-13--------------------13.11-13-11.------------------------11.>
3ra.G|---------------------------------------12-8-8h10-8.-8-10-10/12---->
4ta.D|------------------------------------------------------------------>
------------------------------->>
------------------------------->>
-12-8-8h10-8.------------8-8.-->>
--------------10-8-8/10.------->>
Tiempo: 2:17
-11-10-8-10-8.--------------11-10-8-10-8.--------------------------10.-|
---------------8-6-46-8-8.---------------8-6-4-4/6-4/6--4/6.----8-----|
-----------------------------------------------------------------------|

-------------------------------------------------------------FIN: 2:33-|
05/04/2006
Quejas, reproches, amonestaciones, CORRECCIONES etc, etc a mi correo:
mc_daan_8@hotmail.com. GRACIAS!
HUARAZ-PER