Está en la página 1de 6

Riff 1

|-----------------------------------------|
|-----------------------------------------|
|-----------------------------------------|
|-----------------------------------------|
|----xx-----2--4-5-6~----xx----6-5-4--2~--|
|--2-xx-4-------------2--xx-4-------------|

Riff 2
|----------------------------------|
|----------------------------------|
|----------------------------------|
|----------------------------------|
|----xx------2--4-5-6~----xx----2--|
|--2-xx-4--------------2--xx-4-----|

Riff 3
|----------------------------------------|
|----------------------------------------|
|----------------------------------------|
|----------------------------------------|
|---xx---2~~S11S2-------xx----6-5-4--2~--|
|-2-xx-4-------------2--xx-4-------------|

Riff 4
|-------------------------------------------------------|
|------------------------------8^8^8^-------------------|
|-5^----------------5^---------7^7^7^--5^-------------5-|
|----7--5-7-5-7-5------7--5-7------------7--5-7-5-7-5---|
|-------------------------------------------------------|
|-------------------------------------------------------|

Riff 5
... ... ... ...
|---------------------------|
|---------------------------|
|-----4-----5-----6----7----|
|---3-----4-----5----6------|
|-2-----3-----4----5--------|
|---------------------------|

Riff 6

|-9-10---10-10---12-|
|-8-9----9--9----11-|
|-9-10---10-10---12-|
|-------------------|
|-------------------|
|-------------------|
Riff 7

|-----------------------------------|
|-----------------------------------|
|-----------------------------------|
|-----------------------------------|
|------2-4-5-4-2---6-5-4---7-5-4-2--|
|-0--3-----------------------------3|

Riff 8

|---------------------------------------------------------------
|---------------------------------------------------------------
|-7----------------------7-----------9^9^9^--7------------------
|-7--9---7--9--7--9--7---7--9---7--9-9^9^9^--7--9---7--9--7--9-7
|----9---7--9--7--9--7------9---7--9------------9---7--9--7--9-7
|---------------------------------------------------------------

-----|
-----|
-7---|
-7---|
-----|
-----|

Riff 9
... ... ...
|-------------|
|-------------|
|-------------|
|------2-4-4--|
|--2-4--------|
|-------------|

INTRO:

|-------------------------------------|
|---3S5-5--3-3------------------------|
|--------------2S4-4--2-2---4-4-2-----| x3
|----------------------------------2--|
|-------------------------------------|
|-------------------------------------|

|------------------------------------------|
|---3S5-5--3-3-----------------------------|
|--------------2S4-4--2-2---4------11S3----|
|------------------------------------------|
|------------------------------------------|
|------------------------------------------|

Riff 1
Hace frío hace hambre
Riff 2
y tengo en el hueso un calambre
Riff 3
tengo ganas de besarte
Riff 1
que empieces a aplar luego callarte

CORO:
Riff 4 Riff 5
Amor me siento en las nubes xk tu no te subes y vamos a charlar
Riff 8 Riff 6
Amor me siento en las nubes xk tu no te subes y vamos a charlar

Riff 1
Di si al comienzo
Riff 2
Ya déjate de borrarte de mi lienzo
Riff 3
ahhh no te asustes
Riff 1
kizas sea kon el tiempo k te guste

CORO:
Riff 4 Riff 5
Amor me siento en las nubes xk tu no te subes y vamos a charlar
Riff 8 Riff 7(x8)
Amor me siento en las nubes xk tu no te subes y vamos a charlar

SOLO
|-----12----15b^-15b--15p12-------------------------------------
|-15^----12-----------------15vib---15-12-----------------------
|------------------------------------------15-14----14^-14-12---
|---------------------------------------------------------------
|---------------------------------------------------------------
|---------------------------------------------------------------

----------------------------------------------------------------
-------------------14b-14b--14p12--12b-------14b-14b--14p12-15^-
----12^---------------------------------12b---------------------
-14------14vib--------------------------------------------------
----------------------------------------------------------------
----------------------------------------------------------------

-12-------------------------------------------------------------
-----15-14-12---------------------------------------------------
---------------14-14p12-12-----12^------12-----15--15p14p12--15-
----------------------------14-----14vib------------------------
----------------------------------------------------------------
----------------------------------------------------------------

----------------------------------------------------------------
----------------------------------------------------15--15p14p12
-15p14p12--15--15p14p12--15--15p14p12--15--15p14p12--------------
----------------------------------------------------------------
----------------------------------------------------------------
----------------------------------------------------------------

---------------------------------------------------------15-----
-15--15p14p12--15--15p14p12--15--15p14p12--15--15p14p12---------
----------------------------------------------------------------
----------------------------------------------------------------
----------------------------------------------------------------
----------------------------------------------------------------
-15p14p12--15--15p14p12--15--15p14p12--15--15p14p12-15--15p14p12
----------------------------------------------------------------
----------------------------------------------------------------
----------------------------------------------------------------
----------------------------------------------------------------
----------------------------------------------------------------

-18--18p17p15--18--18p17p15--18--18p17p15--18--18p17p15---------
----------------------------------------------------------------
----------------------------------------------------------------
----------------------------------------------------------------
----------------------------------------------------------------
----------------------------------------------------------------

-18--18p17p15---18^---------------------------------------------
----------------------------------------------------------------
-------------------------13-15-16vib-15-13-15-16----15-16-15----
----------------------15-------------------------------------17-
----------------------------------------------------------------
----------------------------------------------------------------

----------------------------------------------------------------
----------------------------------------------------------------
----15-----------15---------------------------------------------
-17-----17-15-17----17-15-17vib---------15-16-15--15h16h17------
-------------------------------------17-------------------------
----------------------------------------------------------------

----------------------------------------------------------------
----------------------------------------------------------------
-15----------15^-17--17h16h15-15----------------15h17p15--------
----17-15-17---------------------17-17vib----17----------17vib--
----------------------------------------------------------------
----------------------------------------------------------------

-181818-171717-151515-141414-121212-----------------------------
-181818-171717-151515-141414-121212-----------------------------
------------------------------------141414-121212---------------
--------------------------------------------------141414-121212-
----------------------------------------------------------------
----------------------------------------------------------------

----------------------------------------------------------------
----------------------------------------------------------------
----------------------------------------------------------------
----------------------------------------------------------------
-141414-121212-111111-101010-88888-77777------------------------
----------------------------------------------------------------

-181818-171717-151515-141414-121212-----------------------------
-181818-171717-151515-141414-121212-----------------------------
------------------------------------141414-121212---------------
--------------------------------------------------141414-121212-
----------------------------------------------------------------
----------------------------------------------------------------

----------------------------------------------------------------
----------------------------------------------------------------
----------------------------------------------------------------
----------------------------------------------------------------
-141414-121212-111111-101010-88888-77777------------------------
----------------------------------------------------------------

|-------------------------------------|
|---5S7-7--5-5------------------------|
|--------------4S6-6--4-4---6-6-4-----| x2
|----------------------------------4--|
|-------------------------------------|
|-------------------------------------|

|----------------------------|
|---5S7-7--5-5---------------|
|--------------4S6-6--4------|
|----------------------------| X3 Riff 9
|----------------------------|
|----------------------------|

CORO:
Riff 4 Riff 5
Amor me siento en las nubes xk tu no te subes y vamos a charlar
Riff 8 Riff 6
Amor me siento en las nubes xk tu no te subes y vamos a charlar

Riff 1 X2

Uhmmmmmmm