Está en la página 1de 6

Suelta mi mano

intro:Em,D,C,Em7,Am
e--16-14-11--11-16-14-11-8---8-11-1310-7
Em
No, no es necesario
D
que lo entienda
C
porque nunca le ha servido
Em7
Am
una razn al corazon
B7
el corazon no piensa

y por favor no me detengas


C
siempre encuentro la manera
Em7
Am
de seguir, y de vivir
B7
aunque ahora no la tenga
Em
D
Y no, mi vida no vale la pena
C
para que quieres llamar
Em7
Am
si el que era yo, ya no va a estar,
B7
esta es la ltima cena,
Precoro:
Am
D
Y si, entiendo que quieres hablar
G
que a veces necesitas saber de m,
D
C
pero no se si quieras saber de ti,
Em7
Am
vivir as, seguir as
D
pensando en t,

Em
No mi vida
D
para que te esfuerzas
C
no me tienes que explicar
Em
Am
siempre amar tu libertad
B7
por mucho que eso duela
Precoro:
Am
D
Y si, entiendo que quieres hablar
G
que a veces necesitas saber de m,
D
C
pero no se si quieras saber de ti,
Em7
Am
vivir as, seguir as
D
pensando en t,
Coro:
G
C
Suelta mi mano ya por favor
D
Em
entiende que me tengo que ir
C
Am
si ya no sientes mas este amor
D
G
no tengo nada mas que decir,
A
D
No digas nada ya por favor
E7
F#m
te entiendo pero entiendeme a m
D
Bm
cada palabra aumenta el dolor
D
E7
Em
y una lagrima que quiere salir,
D

Coro:
G
C
Suelta mi mano ya por favor
D
Em
entiende que me tengo que ir
C
Am
si ya no sientes mas este amor
D
G
no tengo nada mas que decir,
A
D
No digas nada ya por favor
E7
F#m
te entiendo pero entiendeme a m
D
Bm
cada palabra aumenta el dolor
D
E7
Em
y una lagrima que quiere salir,
Este es el solo q se toca con la
guitarra y al igual q el principio
tambin aqui esta el solo del piano.
Solo:
F#m,E,Bm,C#m,F#m7,E,Bm,E
e--16-14-11--16-14-11-16-14-9----1614-11-16-14-9---8-9-8
b-----------------------------------------------------

e--9-9-9----9-10-12-7---9-10-12
b-----------------------------Y aqui sube de tono:
A
D
Suelta mi mano ya por favor
E
F#m
entiende que me tengo que ir
D
Bm
si ya no sientes mas este amor
E
A
no tengo nada mas que decir,
B
E
No digas nada ya por favor
F#
G#m
te entiendo pero entiendeme a m
E
C#m
cada palabra aumenta el dolor
E
F#
G#m
y una lagrima, que quiere salir,
F#,E,B

El primer tonto

LES DEJO EL RASGUEO


B= BAJO
*= ARRIBA
V= ABAJO
B
B
B
B
e-------*-----------*---B-----|-|-|--|----|-|-|-|
G-----|-|-|--|----|-|-|-|
D-----|-|-|--|----|-|-|-|
A-----|-|-|--|----|-|-|-|
E-----|-|-|--|----|-|-|-|
v
v v
v
v v
e--------------0-0----------------0-0-----2-4-5-5-4--4-2-2-0--00-0--B-0/2-2-0----2-2-2----0/2-2-0--2--2-2-----3-5-7-7-5--5-3-3-2--20-2--2
G----------2-2----------------22------------------------------------2
D-------------------------------------------------------------------A-------------------------------------------------------------------E--------------------------------------------------------------------

e--------------0-0----------------0-0-----2-4-5-5-4--4-2-2-0--00---0
B-0/2-2-0----2-2-2----0/2-2-0--2--2-2-----3-5-7-7-5--5-3-3-2--20---2
G----------2-2----------------22-----------------------------------2
D------------------------------------------------------------------2
A------------------------------------------------------------------0
E------------------------------------------------------------------0
A
Que no te habran dicho
A7
que no te habran dado
D
d si hay un capricho
E7
que no has realizado
A
Di si hay un espacio
A7
perdido en tus das
D
E7
para llenarlo con mis tonterias
A
Quiero una respuesta
A7
y la quiero pronto
D
dime si en tu vida
E7
has amado a otro tonto
A
D que no mi amor
A7
d que no por favor
D
d que al menos en eso
E7
el primero soy yo
A
A7
El primer tonto de tu vida quiero
ser
D
E7

el primer tonto que te am a t


mujer
A
A7
el primer tonto ya ser
satisfaccin
D
de culquier modo
E7
yo te d mi corazn.

e--------------0-0----------------0-0-----2-4-5-5-4--4-2-2-0--00-0--B-0/2-2-0----2-2-2----0/2-2-0--2--2-2-----3-5-7-7-5--5-3-3-2--20-2--2
G----------2-2----------------22------------------------------------2
D-------------------------------------------------------------------A-------------------------------------------------------------------E-------------------------------------------------------------------e--------------0-0----------------0-0-----2-4-5-5-4--4-2-2-0--00---0
B-0/2-2-0----2-2-2----0/2-2-0--2--2-2-----3-5-7-7-5--5-3-3-2--20---2
G----------2-2----------------22-----------------------------------2
D------------------------------------------------------------------2
A------------------------------------------------------------------0
E------------------------------------------------------------------0
A
Que no te habran dicho
A7
que no te habran dado
D
d si hay un capricho
E7
que no has realizado

A
Di si hay un espacio
A7
perdido en tus das
D
E7
para llenarlo con mis tonterias
A
Quiero una respuesta
A7
y la quiero pronto
D
dime si en tu vida
E7
has amado a otro tonto
A
D que no mi amor
A7
d que no por favor
D
d que al menos en eso
E7
el primero soy yo
A
A7
El primer tonto de tu vida quiero
ser
D
E7
el primer tonto que te am a t
mujer
A
A7
el primer tonto ya ser
satisfaccin
D
de culquier modo
E7
yo te d mi corazn.
e-------------------0B-0/2-2-0---2-------2G---------2-2-------2D-------------------2A-------------------0E-------------------0-

A esa gran velocidad

Gtr 1:
2-------------------5-------------2--------------5-------------I
-2---------------------------------2---------------------------I
--4---------------------7------7----4---------------7----7-----I
----4------4---4-------6-6----66-----4---4---4-----6-6--6-6----I
------3---3-3-3-3-----5------5--------3-3-3-3-3---5----5-------I
--------2----2-------------5-----------2---2----------5--------I
Gtr 2:
Bm A
Ritmo: vuvvuuuvu v:R. Hacia abajo
u:R. Hacia
arriba
2-------------------5-------------2--------------5-------------I
-2---------------------------------2---------------------------I
--4---------------------7------7----4---------------7----7-----I
----4------4---4-------6-6----66-----4---4---4-----6-6--6-6----I
------3---3-3-3-3-----5------5--------3-3-3-3-3---5----5-------I
--------2----2-------------5-----------2---2----------5--------I
Voy a intentar una tonada
tonada........
Bm
A
Bm
A
Riff 1
Riff 2 Riff 1
Riff2
Voy a intentar una tonada, que se
paresca a pink floyd
Bm
A
Bm
A
Riff 1`
Riff 2
Riff 1
Riff 2
Una dulce carcajada, ahogada en
humo y alcohol.

con las palabras amontonadas


ebrias, locas.
D
C#m
Bm A D
C#m
Bm A
El no respira, fuma. El no come,
beve.
D
C#m
Bm E
El no vive, muere.
(coro)
-AE
F#m D
C#m
Bm
E
A esa gran Velosidad un impacto
seria fatal
-AE
F#m D
C#m
Bm
E
A esa gran velosidad un impacto
seria fatal
-AE
F#m
D
C#m
Bm
E
Morir asi seria inusual,en un
joven no es normal
A
E
F#m
D
C#m
Bm
E
Mi vida esta en mis manos y un
descuido seria fatal
A
E
F#m
D
C#m
Bm Bm-C#m-D
Veo un camino en mi vida, no se a
donde va,
D
C#m
Bm-Bm E-E
no se a donde va.

Riff-1
Riff-2 Riff-1
Bm
A
Bm
Voy a acabar esta tonada,que es
la cancion de unRiff-2
A
pededor.
Riff-1
Riff-2Riff-1
Riff-2
Bm
A
Bm
A
Esta triste carcajada, y cantar
el ultimo rock.
Lo que pasa es que.....etc.

D
E
A
Bm
Lo que pasa es que el es solo un
mal rockanrollero
el es solo un mal rockanrollero
D
E
A
Bm
D
E

A|-2/4--2--0--2p0------|
Intro:

E|---------------------|

e|---0-----0------2------------5----5----------------------|
B|---0/2---0------3--------3---5/7--5---5--3--2--0/2-------|
G|----------------2------2--------------6--4--2--2---------|
D|---------------------4-------------------------2---------|
A|---------------------------------------------------------|
E|---------------------------------------------------------|
e|---0-----0------2--------2-0--0-----|
B|---0/2---0------3--------3----2-----|
G|----------------2------2------2-----|
D|---------------------4--------2-----|
A|------------------------------0-----|
E|------------------------------------|
A
Me contaron de Romeo y Julieta y
pense
que hermoso cuento
D
y ahora resulta que es mas grande
mas bello esto
A
esto que por ti yo siento.
D
Cruzar los montes, los ros, los
valles,
A
por irte a encontrar
D|-------------------------------------|
A|-2/4---2--0--2--4-----2-0------------|
E|-------------------------------------|
D
salvara tormentas, ciclones,
dragones
A
sin exagerar.
D|---------------------|

D
E
Por poder mirarme en tus ojos
bonitos
F#m
y vivir la gloria de estar a tu
lado
E
porque en m ya siento que te
necesito
D A
que me he enamorado.
D
E
Por poder mirarme en tus ojos
bonitos
F#m
y vivir la gloria de estar a tu
lado
E
porque en m ya siento que te
necesito
D A
eso y ms har.
...Se toca el intro igual que al
principio....
D
Por asegurar la sonrisa de tu
alma
A
buscando equidad,
D
yo podra empear lo ms caro que
tengo
A
que es mi libertad.
D
E
y sera un honor ay amor ser tu
esclavo
F#m
sera tu juguete por mi voluntad
E
y si un da glorioso en tus
brazos acabo
D A
Qu felicidad.
D
E
Si sera un honor ay amor ser tu
esclavo

F#m
sera tu juguete por mi voluntad
E
y si un da glorioso en tus
brazos acabo
D A
qu felicidad.

Intereses relacionados