Está en la página 1de 8

Enva el tono de "la Chispa Adecuada" a tu celular/mvil

INTRO
G|---------------|---------------|
D|---------------|---------------|
A|-3-3--5-5------|-3-3--5-5------|
E|---------5--5-6|---------5--5-6|
G|---------------|---------------|
D|---------------|---------------|
A|-3-3--5-5------|-3-3--5-5------|
E|---------5--5-6|---------5--5-6|
AQU INICIA LA LETRA
G|---------------|---------------|
D|---------------|---------------|
A|-3-3--5-5------|-3-3--5-5------|
E|---------5--5-6|---------5--5-6|
G|---------------|---------------|
D|---------------|---------------|
A|-3-3--5-5------|-3-3--5-5------|
E|---------5--5-6|---------5--5-6|
Y LUEGO ESTA PARTE X2 VECES
G|----------------|----------------|----------------|
D|----------------|-4-4-4-4-4-4-4-4|-5-5-5-5-5-5-5-5|
A|-5-5-5-5-5-5-5-5|----------------|----------------|
E|----------------|----------------|----------------|
|-4-5-5-----|
|-----------|
|------7-7-5|
|-----------|
Luego va esto
G|----------|
D|----------|
A|-5-5------|
E|----5--5-6|
G|---------------|---------------|
D|---------------|---------------|
A|-3-3--5-5------|-3-3--5-5------|
E|---------5--5-6|---------5--5-6|
G|---------------|
D|---------------|
A|-3-3--5-5------|
E|---------5--5-6|

Y LUEGO ESTA PARTE X4 VECES


G|----------------|----------------|----------------|
D|----------------|-4-4-4-4-4-4-4-4|-5-5-5-5-5-5-5-5|

A|-5-5-5-5-5-5-5-5|----------------|----------------|
E|----------------|----------------|----------------|
|-4-5-5-----|
|-----------|
|------7-7-5|
|-----------|
Y LUEGO ESTA PARTE X2 VECES
G|----------------|----------------|----------------|
D|----------------|----------------|----------------|
A|-5--5-5--5--5-5-|---------3--3-3-|-5--5-5---------|
E|----------------|-6--6-6---------|---------3--3-3-|
|-----------|---------|
|-----------|---------|
|-6--6-6----|-3--3-3-5|
|-----------|---------|
LUEGO VA ESTA PARTE
G|---------------|---------------|
D|---------------|---------------|
A|-3-3--5-5------|-3-3--5-5------|
E|---------5--5-6|---------5--5-6|
G|---------------|---------------|
D|---------------|---------------|
A|-3-3--5-5------|-3-3--5-5------|
E|---------5--5-6|---------5--5-6|
Y LUEGO ESTA PARTE X4 VECES
G|----------------|----------------|----------------|
D|----------------|-4-4-4-4-4-4-4-4|-5-5-5-5-5-5-5-5|
A|-5-5-5-5-5-5-5-5|----------------|----------------|
E|----------------|----------------|----------------|
|-4-5-5-----|
|-----------|
|------7-7-5|
|-----------|
Y LUEGO EL FINAL X2 VECES
G|----------------|----------------|----------------|
D|----------------|----------------|----------------|
A|-5--5-5--5--5-5-|---------3--3-3-|-5--5-5---------|
E|----------------|-6--6-6---------|---------3--3-3-|
|-----------|---------|
|-----------|---------|
|-6--6-6----|-3--3-3-5|
|-----------|---------|
Espero que les haya gustado porque est muy fcil
de tocar solo la tienen que escuchar para sacar los tiempos.

Dudas o comentarios a:Miguel_banda123@hotmail.com

calidad:
Hroes del Silencio
la Chispa Adecuada
AUTOR: Pedro Andreu, Alan Boguslavsky, Enrique Bunbury, Joaquin Cardiel,
Janet Valdivia
hero0351
ALBUM: Avalancha
Enva el tono de "la Chispa Adecuada" a tu celular/mvil
INTRODUCCION
Dm
E|--------------------------------------------------------------|
B|--------------------------------------------------------------|
G|2--3--5--7--5--7--7-8-7-5-7--7-9-10--10--9-7--5--7------------|
D|--------------------------------------------------------------|
A|--------------------------------------------------------------|
E|--------------------------------------------------------------|
Dm
E|-5-5--3-5-6-5-3-5-3-5-3-1-3-1-0-1-0---------------------------|
B|-------------------------------------------------1--3---------|
G|--------------------------------------------------------------|
D|--------------------------------------------------------------|
A|--------------------------------------------------------------|
E|--------------------------------------------------------------|
1)Dm

Am

A#

E|------------1-0---------1--0--------------------5-5--3--------|
B|-1-1-1--3-----1-------------1-------1-----3-------------------|
G|-----------------2-2-----------3-3-----3----------------------|
D|--------------------------------------------------------------|
A|--------------------------------------------------------------|
E|--------------------------------------------------------------|

E|------------1-0---------5--0--------------------5-5--3--------|
B|-1-1-1--3-----1-------------1-------1-----3-------------------|
G|-----------------2-2-----------3-3-----3----------------------|
D|--------------------------------------------------------------|
A|--------------------------------------------------------------|
E|--------------------------------------------------------------|
CORO: D Fm# G

E|------------------2--2--0--2--5---5-------3--5--2--3--0--2--0-----------|
B|--3--2--3---------------------------------------------------------2--3--|
G|------------------------------------------------------------------------|
D|------------------------------------------------------------------------|
A|------------------------------------------------------------------------|
E|------------------------------------------------------------------------|
E|------------------2--2--0--2--5---5-------3--5--2--3--0--2--0-----------|
B|-----2--3---------------------------------------------------------2--3--|
G|------------------------------------------------------------------------|
D|------------------------------------------------------------------------|
A|------------------------------------------------------------------------|
E|------------------------------------------------------------------------|
1)Dm
Am
Las palabras fueron avispas
A#
C
y las calles como dunas
Dm
Am
cuando an te espero llegar..
1) un atad guardo tu tacto y
una corona
con tu pelo enmaraado
queriendo encontrar un
arco-iris infinito
2)D-Fm#- G- A
1)Mis manos que an son de hueso
y tu vientre sabe a pan
la catedral es tu cuerpo
1)eres verano y mil tormentas yo
el len
que sonre a las paredes
que he vuelto a pintar del
mismo color

A#

ESTRIBILLO
2) D
F#m
G
No s distinguir entre besos y
A
raices
D
F#m
G
No s distinguir lo complicado
A
de lo simple
D
F#m
y ahora ests en mi lista de
G
A
promesas a olvidar
D
F#m
todo arde si le aplicas la chispa
G
A
adecuada
1)El fuego que es a veces propio
la ceniza siempre ajena
blanca esperma resbalando por
la espina dorsal
1)Ya somos ms viejos y sinceros
y qu ms da
si miramos la "laguna"
como llaman a la eternidad
de la ausencia
ESTRIBILLO CORO
2) D - Fm# - G - A
ESTRIBILLO FINAL
2) Las Notas Tipo Bajo tre veces llevando el ritmo (D, Fm#, G, A)
Dm
La chispa adecuada ...
E|------------1--0-------------------|
B|--1--3-----------3-----------------|
G|-----------------------------------|
D|-----------------------------------|
A|-----------------------------------|
E|-----------------------------------|
..
==========================================================
Transcripcion de Jorge Cuadra S.
(oci06@rree.gob.pe)

calidad:
Hroes del Silencio
la Chispa Adecuada
(TAB)
AUTOR: Pedro Andreu, Alan Boguslavsky, Enrique Bunbury, Joaquin
Cardiel, Janet Valdivia
ALBUM: Avalancha

Enviado por
daniel
hero0354

Enva el tono de "la Chispa Adecuada" a tu celular/mvil


LA CHISPA ADECUADA
INTRO:
E-----------------------------------------------B-------------6---5--------6-5---------1---1---1G-----------7---7---5----5-----5------3--0------D------------------------------------3---3---3--A-3-3/5-5-5------------0---------0-1------------E-----------------------------------------------E--------------------------5-------------(5)----B-------------6---5--------5--5-------1--(6)----G-----------7---7---5----5-----5------3--(5)----D------------------------7-----------3---(7)---5A-3-3/5-5-5------------0---------0-1---------8--E-----------------------------------------------E-----------------------------------------------B-------------6---5--------6-5---------1---1---1G-----------7---7---5----5-----5------3--0------D------------------------------------3---3---3--A-3-3/5-5-5------------0---------0-1------------E-----------------------------------------------E-------------------------5---------------------B-------------6---5-------5--5-------1-6-6-5-3--G-----------7---7---5---5-----5------3-7-------2D-----------------------7-----------3-----------4
A-3-3/5-5-5-----------0---------0-1-------------E-----------------------------------------------EL EL:E(5)ES UN ACORDE QUE SE RASGA HACIA ABAJO.
B(6)
G(5)
D(7)
A(X)
E(X)
EN EL RESTO DE LA CANCION SE REPITE LA INTRO Y LA
SEGUNDA GUITARRA HACE ESTO:
Dm

Am
Bb
Las palabras fueron avispas
C
Dm

Y las calles como dunas


Am
Bb
Cuando aun te espero llegar
Dm
Am
Bb
En un ataud guardo tu tacto
C
Y una corona
Dm
Con tu pelo enmaraado
Am
Queriendo encontrar
Bb
F
Un arcoiris infinito

D - F#m - G - A
Dm

Am
Bb
Mis manos que aun son de hueso
C
Dm
Y tu vientre sabe a pan
Am
Bb
F
La catedral es tu cuerpo
Dm
Am
Bb
Eras verano y mil tormentas
C
Yo el leon
Dm
Que sonrie a las paredes
Am
Que he vuelto a pintar
Bb
F
Del mismo color
D

F#m
G
A
No se distinguir entre besos y raices
D
F#m
G
A
no se distinguir lo complicado de lo simple
D
F#m
G
A
y ahora estas en mi lista de promesas a olvidar
D
F#m
G
A
todo arde si le aplicas la chispa adecuada
Dm - Am - Bb - C
Dm - Am - Bb - F
Dm - Am - Bb - C
Dm - Am - Bb - F
Dm

Am
Bb
El fuego que era a veces propio
C

la ceniza siempre ajena


Dm
Am
Bb
Blanca esperma resbalando
F
por la espina dorsal
Dm
Am
Bb
ya somos mas viejos y sinceros
C
y que mas da?
Dm
si miramos la laguna
Am
Bb
como llama a la eternidad
F
de la ausencia

F#m
G
A
No se distinguir entre besos y raices
D
F#m
G
A
no se distinguir lo complicado de lo simple
D
F#m
G
A
y ahora estas en mi lista de promesas a olvidar
D
F#m
G
A
todo arde si le aplicas la chispa adecuada
Dm - Am - Bb - C
Dm - Am - Bb - F
Dm - Am - Bb - C
Dm - Am - Bb - F
BUENO ESTO ES TODA LA CANCION SOLO COLOQUE LA
PUES LA 2 GUITARRA ES DE UNA VESRION YA
EXISTENTE Y AHY LA TIENEN MAS COMPLETA Y MEJOR.
NO LO OLVIDEN LA PRIMERA GUITARRA REALIZA
LA INTRO DURANTE TODA LA CANCION ECEPTO EN EL
CORO EN EL QUE HACE ESTO:
No se distinguir entre....
E--------2-2-3-5-5-3-3/5/3-2/3/2-0/2/0-----B-3--2-3-------------------------------3/5/3
y se repite de tl forme que acabe de acuerdo
con el coro.
LUEGO VULEVE Y SIGUE A INTRO CON LA PRIMERA
GUITARR Y LA SEGUNDA CON LO QUE ESCRIBI
ANTERIORMENTE.
ESPERO LES SIRVA.

También podría gustarte